Oops, an error
Loading. Please wait.

Rock Star tab

version 1
version 1

Whole song

Interactive

18,153 views 9 this week
3 commentsread comments
1 2 3 4 5
x 3
add to favorites
×
Save as Personal and add changes to this tab that will be seen only by you. Learn more ›
×
You can save this tab as Personal to edit and correct it or add notes. All changes will be seen only by you. Learn more »
launch autoscroll
font size
0
reset
how to read this tab
guitar tuner
edit
Autoscroll
slow
fast
+/-
esc
set tempo
stop
Difficulty
intermediate
I'm not 100% sure about the intro so i left it out. But the rest of it I'm positive is correct.
Intro:
e---------------------------------------------------------------------------|
B---------------------------------------------------------------------------|
G-----------------------------------------------------------X2--------------|
D-0---------4-4-------------5---------7-7-----------------------------------|
A-0-5-5-4-5-4-4-5-5-4-4-5-4-5-5-5-4-5-7-7-9p0-7p0-5-------------------------|
D-0---------4-4-------------5---------7-7-----------------------------------|

Repeat w/ palm muting for verses


Pre-Chorus:
e-----------------------------------------------------------------------------|
B-----------------------------------------------------------------------------|
G-----------------------------------------------------------------------------|
D-11-11-11-11-11-11-11-11-9-9-9-9-9-9-9-9-7-7-7-7-7-7-7-7-4-4-4-4-4-4-4-4-----|
A-9--9--9--9--9--9--9--9--7-7-7-7-7-7-7-7-5-5-5-5-5-5-5-5-2-2-2-2-2-2-2-2-----|
E-----------------------------------------------------------------------------|
P.M.--------------------------------------------------------------------------|

e-----------------------------------------------------------------------------|
B-----------------------------------------------------------------------------|
G-----------------------------------------------------------------------------|
D-5-5-5-5-5-5-5-5-5-5-5-5-5-5-5-5-7-7-7-7-7-7-7-7-7-7-7-7-7-7-7-7s------------|
A-5-5-5-5-5-5-5-5-5-5-5-5-5-5-5-5-7-7-7-7-7-7-7-7-7-7-7-7-7-7-7-7s------------|
E-5-5-5-5-5-5-5-5-5-5-5-5-5-5-5-5-7-7-7-7-7-7-7-7-7-7-7-7-7-7-7-7s------------|
P.M.--------------------------------------------------------------------------|

Chorus:
e-----------------------------------------------------------------------------|
B-----------------------------------------------------------------------------|
G-----------------------------------------------------------------------------|
D-0-7-10-5-------------------5-5-5-5-5-5-5-7----0-4-2-4-0-5-4-2-4-0-0-4-2-4-0-|
A-0-7-10-5------X3---THEN----5-5-5-5-5-5-5-7----------------------------------|
E-0-7-10-5-------------------5-5-5-5-5-5-5-7----------------------------------|

e----------------------------------------------------------------------------|
B----------------------------------------------------------------------------|
G----------------------------------------------------------------------------|
D-5-4-2----------------------------------------------------------------------|
A----------------------------------------------------------------------------|
E----------------------------------------------------------------------------|

Repeat verse
Repeat pre-chorus
Repeat chorus

Then the slow part, again I'm not 100% sure so I left it out.
Repeat intro for pre-solo
I don't know the solo. I wish I did.  Sorry

The rest is just repeats so good luck, have fun, and God bless.

            
            
Suggest correction
Creating personal tab
Creating personal tab
You can edit any tab online and save it as your Personal.

You can edit, replace or remove any tab part or add personal notes – all changes will be seen only by you.

Personal tabs can be accessed anytime from any device, even offline.
Learn more »
Give kudos to tab author, rate the tab!
1 2 3 4 5
comments
print report bad tab
3 comments total.
0 reply
Zeppelinrocker7 10 Apr 02, 2008 04:09 PM

awsome i love this song umm did miley cyrus post this?

0 reply
rocky2476 242 Sep 13, 2008 11:31 AM

haha HIGHLY DOUBTFUL

0 reply
calliesktkate 20 Feb 10, 2009 11:02 AM

lol

guest
Wanna post a correction for this tab? Suggest correction