Oops, an error
Loading. Please wait.

Rock Star tab

version 2
version 2

Whole song

Interactive

23,106 views 15 this week
3 commentsread comments
1 2 3 4 5
x 7
add to favorites
×
Save as Personal and add changes to this tab that will be seen only by you. Learn more ›
×
You can save this tab as Personal to edit and correct it or add notes. All changes will be seen only by you. Learn more »
launch autoscroll
font size
0
reset
how to read this tab
guitar tuner
edit
Autoscroll
slow
fast
+/-
esc
set tempo
stop
Hannah Montana - Rock Star (Live)
---------------------------------

I have decided to tab the whole song since I couldn't find any other good
tabs so far. These are of course not 100% correct either but the chords
sound right and it is really fun to play. Since I am not good at playing
(and figuring out ^^) solos I tabbed a simplified version of the solo which
is kind of easy to play and fits over the real solo quite well.

Tuning: Drop D (DADGBe)


### INTRO RIFF 1 ### 00:26 ###
e|-----------------------------------|-----------------------------------|
B|--------3---------------2-------2--|--------3--------------------------|
G|------4---------7-----2-------2----|------4---------7-------1-------1--|
D|----4---------5-----2-------2------|----4---------5-------2-------2----|
A|--2---------5-----0-------0--------|--2---------5-------2-------2------|
D|----------5------------------------|----------5-------2-------2--------|


### INTRO RIFF 2 ### 00:37 ###
e|---------------------------------------------------------|
B|---------------------------------------------------------|
G|---------------------------------------------------------| (2x)
D|--0----------4-4-----------5-5----------7--7-------------|
A|--0--5--4--5-4-4-5-5-4-4-5-5-5--5-4-4-5-7--7-9-9-7-7-5~--|
D|--0----------4-4-----------5-5----------7--7-------------|


### VERSE ### 00:50 ###
e|-------------------------------|
B|-------------------------------|
G|--7----------------------------| (2x)
D|--7-(8x)-4-(8x)-5-(8x)-7-(8x)--|
A|--5------4------5------7-------|
D|---------4------5------7-------| (pm)


### PRE-CHORUS ### 01:02 ###
e|---------------|-----------------|---------------|-----------------|
B|---------------|-----------------|---------------|-----------------|
G|--4----4----4--|--6----6----6-6--|--7----7----7--|--9----9--9-9-9--|
D|--4----4----4--|--6----6----6-6--|--7----7----7--|--9----9--9-9-9--|
A|--2--2-2--2-2--|--4--4-4--4-4-4--|--5--5-5--5-5--|--7--7-7--7-7-7--|
D|---------------|-----------------|---------------|-----------------|

e|---------|-----------------------|---------|-------------------|
B|---------|-----------------------|---------|-------------------|
G|---------|-----------------------|---------|-------------------|
D|--5------|----5-5-5-5-5-5-5------|--7------|----7-7-7-7-7-7-7--|
A|--5------|----5-5-5-5-5-5-5------|--7------|----7-7-7-7-7-7-7--|
D|--5------|----5-5-5-5-5-5-5-(pm)-|--7------|----7-7-7-7-7-7-7--|


### CHORUS ### 01:13 ###
e|---------------------------------------|------------------------------------------|
B|---------------------------------------|------------------------------------------|
G|---------------------------------------|------------------------------------------|
D|--0--0-7--7-7-7-10--10-5--5-5-5--(2x)--|--0--0-7--7-7-7-10--10-5--5-5-5--5(7x)-7--|
A|--0--0-7--7-7-7-10--10-5--5-5-5--------|--0--0-7--7-7-7-10--10-5--5-5-5--5-----7--|
D|--0--0-7--7-7-7-10--10-5--5-5-5--------|--0--0-7--7-7-7-10--10-5--5-5-5--5-----7--|


### INTERLUDE ### 01:26 ###
e|----------------------------|----------------------------|
B|----------------------------|----------------------------|
G|----------------------------|----------------------------|
D|--0--4-2--4--0--5-4--2-4-2--|--0--4-2--4--0--5-4-2~------|
A|----------------------------|----------------------------|
D|----------------------------|----------------------------|

e|-------------------------------------|
B|-------------------------------------|
G|-------------------------------------|
D|--0--0-7--7-7-7-9--9-5--5-5-5--(2x)--| (alternatively)
A|--0--0-7--7-7-7-9--9-5--5-5-5--------|
D|--0--0-7--7-7-7-9--9-5--5-5-5--------|


### VERSE ### 01:31 ###

### PRE-CHORUS ### 01:43 ###

### CHORUS ### 01:55 ###


### INTRO RIFF 1 ### 02:07 ###
                    e|-------------------|
                    B|-------------------|
.. like before  +   G|--------7-------9--|
                    D|------5-------7----|
                    A|----5-------7------|
                    D|--5-------7--------|


### INTRO RIFF 2 ### 02:22 ###


### SOLO ### 02:34 ### (simplified)
e|------------------------------|-------------------------------------|
B|------------------------------|---------10--------------10----------|
G|--9b--9b--9b--9b--9b-9-7-9-7--|--9-7-9b----9-7-9-7-9-9b----9-7---7--|
D|------------------------------|--------------------------------9----|
A|------------------------------|-------------------------------------|
D|------------------------------|-------------------------------------|

e|--7-5---5--7-5---5--7-5-7-10~--|--15--13--------------------------|
B|------7--------7---------------|----------15--13------------------|
G|-------------------------------|-----------------14-12------------|
D|-------------------------------|-----------------------14-12------|
A|-------------------------------|-----------------------------14\--|
D|-------------------------------|----------------------------------|


### CHORUS ### 02:46 ###

                    e|-----------|-------------------|
                    B|-----------|-------------------|
.. like before  +   G|-----------|-------------------|
                    D|--5(8x)-7--|----7-7-7-7-7-7-7--|
                    A|--5-----7--|----7-7-7-7-7-7-7--|
                    D|--5-----7--|----7-7-7-7-7-7-7--|


### INTERLUDE ### 03:02 ###  (2x !!)


### ENDING ### 3:14 ###

e|-----------------|
B|-----------------|
G|-----------------|
D|-----------------|
A|--5~~~-----------|
D|-----------------|

            
            
Suggest correction
Creating personal tab
Creating personal tab
You can edit any tab online and save it as your Personal.

You can edit, replace or remove any tab part or add personal notes – all changes will be seen only by you.

Personal tabs can be accessed anytime from any device, even offline.
Learn more »
comments
print report bad tab
3 comments total.
0 reply
BamMargera789 63 Jun 11, 2008 02:05 AM

omg! finally a rockstar tab with a solo

0 reply
jaxvilleplayer 10 Aug 22, 2008 12:52 PM

thanks man good tab

0 reply
wallace g 20 Apr 04, 2009 09:24 PM

awesome

guest
You may want to rate the tab now too:
select rating
Wanna post a correction for this tab? Suggest correction