Oops, an error
Loading. Please wait.

We Got The Party With Us tab

version 1
version 1

Whole song

Interactive

6,544 views 1 this week
1 commentread comment
1 2 3 4 5
x 3
add to favorites
×
Save as Personal and add changes to this tab that will be seen only by you. Learn more ›
×
You can save this tab as Personal to edit and correct it or add notes. All changes will be seen only by you. Learn more »
launch autoscroll
font size
0
reset
how to read this tab
guitar tuner
edit
Autoscroll
slow
fast
+/-
esc
set tempo
stop
Author
Difficulty
Hannah Montana – We Got The Party
Tabbed by Navonski
Listen to the recording for the exact rhythm.
Chords in the chorus come on the off-beat.
Chords are just shown for one verse, one chorus, and the bridge. All verses and choruses 
same chords.

====================================
               Chords
====================================
((verses))
  B5                              (E5-B5)
  C'mon guys, tell me what we're doin',
e-------------------------------------------------------------|
B-------------------------------------------------------------|
G--4------------------------------(4--)-----------------------|
D--4------------------------------(2-4)-----------------------|
A--2------------------------------(--2)-----------------------|
E-------------------------------------------------------------|

                                           (E5)      A5
  We're hangin' around when we could be all over the place,
e-------------------------------------------------------------|
B-------------------------------------------------------------|
G-4---------------------------------------(/999\)----2--------|
D-4---------------------------------------(/999\)----2--------|
A-2---------------------------------------(/777\)----0--------|
E-------------------------------------------------------------|

  B5
  The sun is shinin' just the way we like it,
e-------------------------------------------------------------|
B-------------------------------------------------------------|
G-4-----------------------------------------------------------|
D-4-----------------------------------------------------------|
A-2-----------------------------------------------------------|
E-------------------------------------------------------------|

                                                  A5
  Let's get outta this hallway show the world our face,
e-------------------------------------------------------------|
B-------------------------------------------------------------|
G--4----------------------------------------------2-----------|
D--4----------------------------------------------2-----------|
A--2----------------------------------------------0-----------|
E-------------------------------------------------------------|

((Pre-Chorus))
  G5                       A5
  It's Friday, but there's no where to go,
e-------------------------------------------------------------|
B-------------------------------------------------------------|
G-------------------------------------------------------------|
D-5------------------------7----------------------------------|
A-5------------------------7----------------------------------|
E-3------------------------5----------------------------------|

  G5                         A5
  Anywhere is cool, but we're not goin' home,
e-------------------------------------------------------------|
B-------------------------------------------------------------|
G-------------------------------------------------------------|
D-5---------------------------7-------------------------------|
A-5---------------------------7-------------------------------|
E-3---------------------------5-------------------------------|

  G5                    A5
  We can do anything we wanna do,
e-------------------------------------------------------------|
B-------------------------------------------------------------|
G-------------------------------------------------------------|
D--5--------------------7-------------------------------------|
A--5--------------------7-------------------------------------|
E--3--------------------5-------------------------------------|

  G5                    A5
  It's all up to me and you.
e-------------------------------------------------------------|
B-------------------------------------------------------------|
G-------------------------------------------------------------|
D-5---------------------7-------------------------------------|
A-5---------------------7-------------------------------------|
E-3---------------------5-------------------------------------|


((Chorus))
  B                     A                   E
  Turn this park into a club, The stars are lights,
e-----------7----7-7--7-5-----5---5-----5---4-----------------|
B-----------7----7-7--7-5-----5---5-----5---5-----------------|
G-----------8----8-8--8-6-----6---6-----6---4-----------------|
D-------------------------------------------------------------|
A-------------------------------------------------------------|
E-------------------------------------------------------------|

                    A          E
  And the moon is a vibe from above,
e-----4---4------4--5----5----4--4----------------------------|
B-----5---5------5--5----5----5--5----------------------------|Continue
G-----4---4------4--6----6----4--4----------------------------|chord
D-------------------------------------------------------------|rhythm
A-------------------------------------------------------------|thru chorus
E-------------------------------------------------------------|

  B                      A                E
  Skateboards here's all right so pull on up,
e--7---------------------5----------------4-------------------|
B--7---------------------5----------------5-------------------|
G--8---------------------6----------------4-------------------|
D-------------------------------------------------------------|
A-------------------------------------------------------------|
E-------------------------------------------------------------|

              A           E
  Everyone is waiting for us,
e-------------5-----------5-----------------------------------|
B-------------5-----------5-----------------------------------|
G-------------6-----------4-----------------------------------|
D-------------------------------------------------------------|
A-------------------------------------------------------------|
E-------------------------------------------------------------|

  B                   A                      E
  Anywhere we are, Anywhere we go, Everybody knows,
e-7-------------------5----------------------4----------------|
B-7-------------------5----------------------5----------------|
G-8-------------------6----------------------4----------------|
D-------------------------------------------------------------|
A-------------------------------------------------------------|
E-------------------------------------------------------------|

  A          E
  We got the party with us,
e-5----------4------------------------------------------------|
B-5----------5------------------------------------------------|
G-6----------4------------------------------------------------|
D-------------------------------------------------------------|
A-------------------------------------------------------------|
E-------------------------------------------------------------|

  B                   A                      E
  Anywhere we are, Anywhere we go, Everybody knows,
e-7-------------------5----------------------4----------------|
B-7-------------------5----------------------5----------------|
G-8-------------------6----------------------4----------------|
D-------------------------------------------------------------|
A-------------------------------------------------------------|
E-------------------------------------------------------------|

  A          E
  We got the party with us,
e-5----------4------------------------------------------------|
B-5----------5------------------------------------------------|
G-6----------4------------------------------------------------|
D-------------------------------------------------------------|
A-------------------------------------------------------------|
E-------------------------------------------------------------|

   B            A
   Oh, oh, oh, oh, oh, oh,
e--7-----------5----------------------------------------------|
B--7-----------5----------------------------------------------|
G--8-----------6----------------------------------------------|
D-------------------------------------------------------------|
A-------------------------------------------------------------|
E-------------------------------------------------------------|

      E               A     E
  Oh, oh, oh, oh, oh, ohhh, ohhh! (We got the party with us)
e-----4---------------5-----4---------------------------------|
B-----5---------------5-----5---------------------------------|
G-----4---------------6-----4---------------------------------|
D-------------------------------------------------------------|
A-------------------------------------------------------------|
E-------------------------------------------------------------|

    G           A         B
  Oh, oh, oh, oh, oh, ohhh! (We got the party with us)
e--3-----------5----------7-----------------------------------|
B--3-----------5----------7-----------------------------------|
G--4-----------4----------8-----------------------------------|
D-------------------------------------------------------------|
A-------------------------------------------------------------|
E-------------------------------------------------------------|


((Bridge))
   G          A             G      A
  Life is for dreamers, And I'm a believer,
e-3-----------0-------------3------0--------------------------|
B-0-----------2-------------0------2--------------------------|
G-0-----------2-------------0------2--------------------------|
D-0-----------2-------------0------2--------------------------|
A-2-----------0-------------2------0--------------------------|
E-3-------------------------3---------------------------------|

       G           A            G
  That nothing can stand in our way,
e------3-----------0------------3-----------------------------|
B------0-----------2------------0-----------------------------|
G------0-----------2------------0-----------------------------|
D------0-----------2------------0-----------------------------|
A------2-----------0------------2-----------------------------|
E------3------------------------3-----------------------------|

                       A
  Today let's find a place to play
e----------------------0--------------------------------------|
B----------------------2--------------------------------------|
G----------------------2--------------------------------------|
D----------------------2--------------------------------------|
A----------------------0--------------------------------------|
E-------------------------------------------------------------|

==============================================================
                    Vocal Melody
==============================================================
As above, just one verse chorus and bridge. Other verses are same with minor differences 
vocal inflection.
The guitar doesn't play this on the recording, it's just here for fun.

(verses)
  C'mon guys, tell me what we're doin' We're hangin' around
e--------------------------------------------2----------------|
B-4--4--4-----4----4----4----4-----2-0---0--------4-----4-----|
G-------------------------------------------------------------|
D-------------------------------------------------------------|
A-------------------------------------------------------------|
E-------------------------------------------------------------|

  when we could be all over the place, The sun is shinin'
e------0--0---------------------------------------------------|
B-4-------------4---2--2-0--2---2------4---4---4--4--4--------|
G----------------------------------2--------------------------|
D-------------------------------------------------------------|
A-------------------------------------------------------------|
E-------------------------------------------------------------|

  just the way we like it, Let's get outta this hallway
e-0----0----------------------------------------0--0----------|
B----------4---4---2---0---4-----4---4-4---4------------------|
G-------------------------------------------------------------|
D-------------------------------------------------------------|
A-------------------------------------------------------------|
E-------------------------------------------------------------|

  show the world our face,
e-------------------------------------------------------------|
B-4----4---2-----0---2----------------------------------------|
G----------------------2--------------------------------------|
D-------------------------------------------------------------|
A-------------------------------------------------------------|
E-------------------------------------------------------------|

(pre-chorus)
  It's Friday, but there's no where to go,
e------2--2----2---2-------2--0--------0----------------------|
B-----------------------------------3-------------------------|
G-0-----------------------------------------------------------|
D-------------------------------------------------------------|
A-------------------------------------------------------------|
E-------------------------------------------------------------|

  Anywhere is cool, but we're not goin' home,
e-2-2-2----2--2-----2---2-----2---0-----0---------------------|
B-----------------------------------3-------------------------|
G-------------------------------------------------------------|
D-------------------------------------------------------------|
A-------------------------------------------------------------|
E-------------------------------------------------------------|

  We can do anything we wanna do, It's all up to me and you.
e-0--2---2--2-2-2----2--2--0--0--------2---0---------2--0-----|
B---------------------------------------------3--3-0----------|
G---------------------------------0---------------------------|
D-------------------------------------------------------------|
A-------------------------------------------------------------|
E-------------------------------------------------------------|

(chorus)
  Turn this park into a club, The stars are lights,
e------5----7----7-7--7-5-----5---5-----5---4-----------------|
B-7-----------------------------------------------------------|
G-------------------------------------------------------------|
D-------------------------------------------------------------|
A-------------------------------------------------------------|
E-------------------------------------------------------------|

  And the moon is a vibe from above,
e-4---4---4----4--4-5----4------5-4---------------------------|
B-----------------------------7-----7-------------------------|
G-------------------------------------------------------------|
D-------------------------------------------------------------|
A-------------------------------------------------------------|
E-------------------------------------------------------------|


  Skateboards here's all right so pull on up,
e-7----7------7------7---5-----5--5----5--4-------------------|
B-------------------------------------------------------------|
G-------------------------------------------------------------|
D-------------------------------------------------------------|
A-------------------------------------------------------------|
E-------------------------------------------------------------|

  Everyone is waiting for us, Anywhere we are, Anywhere we go,
e-4-4-4----4--5--4-------5-4----------------------------------|
B---------------------7-----7-5-7-7----5--7----5-7-7----5--7--|
G-------------------------------------------------------------|
D-------------------------------------------------------------|
A-------------------------------------------------------------|
E-------------------------------------------------------------|

  Everybody knows, We got the party with us,
e-------------------------------------------------------------|
B-5-7--7-5--7-------------4---5--4----------------------------|
G--------------4---4--6-------------6----4--------------------|
D-------------------------------------------------------------|
A-------------------------------------------------------------|
E-------------------------------------------------------------|

  Anywhere we are, Anywhere we go, Everybody knows,
e-------------------------------------------------------------|
B-5-7-7----5--7----5-7-7----5--7---5-7--7-5--7----------------|
G-----------------------------------------------4-------------|
D-------------------------------------------------------------|
A-------------------------------------------------------------|
E-------------------------------------------------------------|

  We got the party with us
e-------------------------------------------------------------|
B--------4---5--4---------------------------------------------|
G-4--6-------------6----4-------------------------------------|
D-------------------------------------------------------------|
A-------------------------------------------------------------|
E-------------------------------------------------------------|

  Oh, oh, oh, oh, oh, oh Oh, oh, oh, oh, oh, ohhh, ohhh!
e-7---7---7---5---5---5--5---4---4---4---4---5-4---5-4--------|
B------------------------------------------------7-----7------|
G-------------------------------------------------------------|
D-------------------------------------------------------------|
A-------------------------------------------------------------|
E-------------------------------------------------------------|

  Oh, oh, oh, oh, oh, ohhh!
e-7---7---7---5---5---5-7-------------------------------------|
B-------------------------------------------------------------|
G-------------------------------------------------------------|
D-------------------------------------------------------------|
A-------------------------------------------------------------|
E-------------------------------------------------------------|

(bridge)
  Life is for dreamers, And I'm a believer,
e-----------------------------------0--2----------------------|
B-3----0--3---2---------2---3---0-3---------------------------|
G-----------------2-------------------------------------------|
D-------------------------------------------------------------|
A-------------------------------------------------------------|
E-------------------------------------------------------------|

  That nothing can stand in our way,
e-0----7--5---------------------------------------------------|
B--------------7---7-----7--5---7-----------------------------|
G-------------------------------------------------------------|
D-------------------------------------------------------------|
A-------------------------------------------------------------|
E-------------------------------------------------------------|

  Today let's find a place to play!
e-----------------------------7-------------------------------|
B-8-7---8-----7----8-7-----5----------------------------------|
G-------------------------------------------------------------|
D-------------------------------------------------------------|
A-------------------------------------------------------------|
E-------------------------------------------------------------|

            
            
Suggest correction
Creating personal tab
Creating personal tab
You can edit any tab online and save it as your Personal.

You can edit, replace or remove any tab part or add personal notes – all changes will be seen only by you.

Personal tabs can be accessed anytime from any device, even offline.
Learn more »
Give kudos to tab author, rate the tab!
1 2 3 4 5
comments
print report bad tab
1 comment total.
0 reply
ncroxalot4 215 Dec 27, 2008 11:44 AM

this is perfect. i was going to tab it exactly the same. way to go! finally someone knows how tab this song haha. nice job! this should easily be 5 stars cuz thats what i gave it

guest
You may want to rate the tab now too:
select rating
Wanna post a correction for this tab? Suggest correction