Oops, an error
Loading. Please wait.

11Th Street Kids intro tab

4,498 views 3 this week
3 commentsread comments
1 2 3 4 5
1 last vote to show rating
add to favorites
×
Save as Personal and add changes to this tab that will be seen only by you. Learn more ›
×
You can save this tab as Personal to edit and correct it or add notes. All changes will be seen only by you. Learn more »
launch autoscroll
font size
0
reset
how to read this tab
guitar tuner
edit
Autoscroll
slow
fast
+/-
esc
set tempo
stop
Author
Difficulty
Sorry, not even the whole intro... But I like the tune :P I think it's right.

E||-------------------------|---------------------------|
B||---------7----8----7--8--|--8b------7--8----------7--|
G||*--/7--------------------|----------------7----7-----|
D||*------------------------|---------------------------|
A||-------------------------|---------------------------|
E||-------------------------|---------------------------|


                           
--------------------------|--------------------------------||
--8b----7--8----------7---|--------------------------------||
---------------7----7-----|--9b--7-----6h7p6--------------*||
--------------------------|------------------7------------*||
--------------------------|--------------------------------||
--------------------------|--------------------------------||


h - hammer on
p - pull off
b - bend

            
            
Suggest correction
Creating personal tab
Creating personal tab
You can edit any tab online and save it as your Personal.

You can edit, replace or remove any tab part or add personal notes – all changes will be seen only by you.

Personal tabs can be accessed anytime from any device, even offline.
Learn more »
Give kudos to tab author, rate the tab!
1 2 3 4 5
comments
print report bad tab
3 comments total.
0 reply
supea 16 Mar 01, 2008 11:49 PM

Nice tab!

0 reply
Estranged64 10 Nov 10, 2008 04:01 AM

I think it's

E||-------------------------|---------------------------|
B||---------7----8----7--8--|-10b------8--7----------7--|
G||*--/7--------------------|----------------9----7-----|
D||*------------------------|---------------------------|
A||-------------------------|---------------------------|
E||-------------------------|---------------------------|

0 reply
supea 16 Jul 18, 2009 06:09 AM

All right cool, I'll try change it if I can... Had played guitar for like 3 months when I posted this ^^

guest
You may want to rate the tab now too:
select rating
Wanna post a correction for this tab? Suggest correction