Oops, an error
Loading. Please wait.

Hammerhead solo tab

22 views 1 this week
2 commentsread comments
1 2 3 4 5
1 last vote to show rating
add to favorites
×
Save as Personal and add changes to this tab that will be seen only by you. Learn more ›
×
You can save this tab as Personal to edit and correct it or add notes. All changes will be seen only by you. Learn more »
launch autoscroll
font size
0
reset
how to read this tab
guitar tuner
edit
Autoscroll
slow
fast
+/-
esc
set tempo
stop
 video:    https://www.youtube.com/watch?v=NDIfqf092cw


  12:22  (use tremolo)
D|----------------------|----------------------|-----------------------------|
A|----------------------|----------------------|-----------------------------|
F|----------------------|----------------------|-----------------------------|
C|----------------------|----------------------|-----------------------------|
G|----------------------|----------------------|----------------------0--2---|
C|--0--7--0--5----------|--5--5--7--0----------|--0--4--5--7-------4---------|

D|---------------------------------------------------------------------------|
A|---------------------------------------------------------------------------|
F|---------------------------------------------------------------------------|
C|-----5--4--5--------------------------------0--2--4------------------------|
G|--2---------------2------2----0--------------------------2----(2)--(2)-----|
C|-------------------------------------4-------------------------------------|

D|---------------------------------------------------------------------------|
A|---------------------------------------------------------------------------|
F|---------------------------------------------------------------------------|
C|-----5--4--5----------------2----------------------------------------------|
G|--2---------------2------2-----4-----(0)-----2--0--2-----------------------|
C|---------------------------------------------------------------------------|

D|---------------------------------------------------------------------------|
A|---------------------------------------------------------------------------|
F|---------------------------------------------------------------------------|
C|-----5--4--5--------------------------------0--2--4------------------------|
G|--2---------------2---------2--4-------------------------2-----------------|
C|---------------------------------------------------------------------------|

D|---------------------------------------------------------------------------|
A|---------------------------------------------------------------------------|
F|---------------------------------------------------------------------------|
C|-----5--4--5----------------2----------------------------------------------|
G|--2---------------2------------4-------------2--0--2-----------------------|
C|---------------------------------------------------------------------------|


 [Bridge]

D|------------------------|----------------12-----|-----------------------------------------|
A|--12-14-15-14-15-14-12--|-12-14-15-14-15----15--|-12-14-12----12-14-15----12-14-12----12--|
F|------------------------|-----------------------|----------11----------------------11-----|
C|------------------------|-----------------------|-----------------------------------------|
G|------------------------|-----------------------|-----------------------------------------|
C|------------------------|-----------------------|-----------------------------------------|

D|-----------------12----------------------------------12-12----12-14-12----------------------------|
A|--12-14-15-14-15----14-15-12-14-12----12----12-14-15-------15----------15-14-15-15-14-12----12----|
F|-----------------------------------14----11----------------------------------------------14----11-|
C|--------------------------------------------------------------------------------------------------|
G|--------------------------------------------------------------------------------------------------|
C|--------------------------------------------------------------------------------------------------|

D|-------------------------------------------------------------------------------------12-------|
A|--12-14-15-14-12----12----14---15---14---12----12-14--15-14-15-14-15---14---15-14-15----15-14-|
F|-----------------14----11-------------------14------------------------------------------------|
C|----------------------------------------------------------------------------------------------|
G|----------------------------------------------------------------------------------------------|
C|----------------------------------------------------------------------------------------------|

D|---------------------------------------------------------------------------------|
A|--12-14-15-14-12----12-14-15---15-14-12-----12-14-15-12-14---12------------------|
F|-----------------14---------------------14--------------------------14-----------|
C|---------------------------------------------------------------------------------|
G|---------------------------------------------------------------------------------|
C|---------------------------------------------------------------------------------|


 [Orchestral Lead]
D|----------------------------------------------------------------------------------------------|
A|--------------------------------------11---12-----------------------11---12----------11---12--|
F|--------11---12--------11-9-11---11--------------------11---9---9-----------------------------|
C|----9----------------------------------------------------------------------------9------------|
G|----------------------------------------------------------------------------------------------|
C|-----------------------------------------------------------------------------9----------------|

D|--------------------------------6---7---------|---------------6---7---------------------------|
A|------7---8--------7p5--7---------------------|-5/7---5---5-------------------11---12---------|
F|--4------------------------(4)----------------|-----------------------------------------9~~~--|
C|----------------------------------------------|---------------------------9-------------------|
G|----------------------------------------------|-----------------------------------------------|
C|----------------------------------------------|-----------------------9-----------------------|


************************

|( )  Ghost note
|~    Vibrato
|p    Pull-off
|/    Slide-up

************************    

            
            
Suggest correction
Creating personal tab
Creating personal tab
You can edit any tab online and save it as your Personal.

You can edit, replace or remove any tab part or add personal notes – all changes will be seen only by you.

Personal tabs can be accessed anytime from any device, even offline.
Learn more »
Give kudos to tab author, rate the tab!
1 2 3 4 5
comments
print report bad tab
2 comments total.
0 reply
haf128 10 Jul 02, 2017 01:07 PM

sounds great!

+1 reply
DropDeee 4,224 Jul 02, 2017 01:10 PM

Thanks man! I tabbed this on clean channel through my little practice amp while watching 'The Nutty Professor' last night but I think I'm gonna play it through my full setup with Tremolo effect and go nuts when I get back home :)

guest
You may want to rate the tab now too:
select rating
Wanna post a correction for this tab? Suggest correction