Oops, an error
Loading. Please wait.

Move At Different Speeds tab

91 views 1 this week
no commentswrite comment
1 2 3 4 5
3 more votes to show rating
add to favorites
×
Save as Personal and add changes to this tab that will be seen only by you. Learn more ›
×
You can save this tab as Personal to edit and correct it or add notes. All changes will be seen only by you. Learn more »
launch autoscroll
font size
0
reset
how to read this tab
guitar tuner
edit
Autoscroll
slow
fast
+/-
esc
set tempo
stop
Author
Title: Move At Different Speeds
Artist: Happy Body Slow Brain
Tempo = 120
Timing = 5/4
Tuning(High to low) = D# B F# C# G# D#


D#|--0--------------0----------------|---------------------------------|||
B |--------0--------------0----------|--2-----0--------2-----0-----0---|||
F#|-----------2--------------2s-4----|-----------4--------------4-----o|||
C#|----------------------------------|--------------------------------o|||
G#|----------------------------------|---------------------------------|||
D#|----------------------------------|---------------------------------|||


-0-----------0-----------------0-----------0-------------------|
-0-----------0-----------------0-----------0-------------------|
o2-----------2-------------------------------------------------|
o3-----------3-----------------7-----------7-------------------|
-3-----------3-----------------7-----------7-------------------|
-1-----------1-----------x-----5-----------5-----------x--x----|


--0-----------0-----------------0-----------0------------------|||
--0-----------0-----------------0-----------0------------------|||
--4-----------4-----------------5-----------5-----------------o|||
--5-----------5-----------------4-----------4-----------------o|||
--5-----------5-----------------5-----------5------------------|||
--3-----------3-----------x-----------------------------x--x---|||


---------------------------------|----------------------------------|
-------------7-----------9--7----|--------------7-----------9--7----|
o------5--7-----------5----------|--------5--7-----------5----------|
o5--7-----------5--7-------------|--5--7-----------5--7-------------|
---------------------------------|----------------------------------|
---------------------------------|----------------------------------|


----------------------------------|----------------------------------|
--------------------------9-------|--------------------------9-------|
-----------9--12-------------12---|-----------9--12-------------12---|
--9--10-12-------9--10-12---------|--9--10-12-------9--10-12---------|
----------------------------------|----------------------------------|
----------------------------------|----------------------------------|


----------------------------------|----------------------------------|
--------------7-----------9--7----|--------------7-----------9--7----|
--------5--7-----------5----------|--------5--7-----------5----------|
--5--7-----------5--7-------------|--5--7-----------5--7-------------|
----------------------------------|----------------------------------|
----------------------------------|----------------------------------|


----------------------------------|--------------------------7------||
----------------------------------|--------------7--------------7---||
-----------7--10-------10-9--7----|--------5--7-----------5--------o||
--7--8--10-------7--8-------------|--5--7-----------5--7-----------o||
----------------------------------|---------------------------------||
----------------------------------|---------------------------------||


--0-----------0-----------------0-----------0-------------------|
--0-----------0-----------------0-----------0-------------------|
--2-----------2-------------------------------------------------|
--3-----------3-----------------7-----------7-------------------|
--3-----------3-----------------7-----------7-------------------|
--1-----------1-----------x-----5-----------5-----------x--x----|


--0-----------0-----------------0-----------0-------------------|
--0-----------0-----------------0-----------0-------------------|
--4-----------4-----------------5-----------5-------------------|
--5-----------5-----------------4-----------4-------------------|
--5-----------5-----------------5-----------5-------------------|
--3-----------3-----------x-----------------------------x--x----|


--0-----------0-----------------0-----------0-------------------|
--0-----------0-----------------0-----------0-------------------|
--2-----------2-------------------------------------------------|
--3-----------3-----------------7-----------7-------------------|
--3-----------3-----------------7-----------7-------------------|
--1-----------1-----------x-----5-----------5-----------x--x----|


--0-----------0-----------------0-----------0-------------------|
--0-----------0-----------------0-----------0-------------------|
--4-----------4-----------------5-----------5-------------------|
--5-----------5-----------------4-----------4-------------------|
--5-----------5-----------------5-----------5-------------------|
--3-----------3-----------x-----------------------------x--x----|


--0--0--0--0--0--0--0--0--0--0----|
--0--0--0--0--0--0--0--0--0--0----|
--2--2--2--2--2-------------------|
--3--3--3--3--3--7--7--7--7--7----|
--3--3--3--3--3--7--7--7--7--7----|
--1--1--1--1--1--5--5--5--5--5----|


--0-----0-----0-----0-----0-----0-----------0-------------------|
--0-----0-----0-----0-----0-----0-----------0-------------------|
--4-----4-----4-----4-----4-----5-----------5-------------------|
--5-----5-----5-----5-----5-----4-----------4-------------------|
--5-----5-----5-----5-----5-----5-----------5-------------------|
--3-----3-----3-----3-----3-----------------------------x--x----|


--0-----------0-----------------0-----------0-------------------|
--0-----------0-----------------0-----------0-------------------|
--2-----------2-------------------------------------------------|
--3-----------3-----------------7-----------7-------------------|
--3-----------3-----------------7-----------7-------------------|
--1-----------1-----------x-----5-----------5-----------x--x----|


--0-----------0-----------------0-----------0-------------------||
--0-----------0-----------------0-----------0-------------------||
--4-----------4-----------------5-----------5-------------------||
--5-----------5-----------------4-----------4-------------------||
--5-----------5-----------------5-----------5-------------------||
--3-----------3-----------x-----------------------------x--x----||


---------------------------------|----------------------------------|
-------------7-----------9--7----|--------------7-----------9--7----|
o------5--7-----------5----------|--------5--7-----------5----------|
o5--7-----------5--7-------------|--5--7-----------5--7-------------|
---------------------------------|----------------------------------|
---------------------------------|----------------------------------|


----------------------------------|----------------------------------|
--------------------------9-------|--------------------------9-------|
-----------9--12-------------12---|-----------9--12-------------12---|
--9--10-12-------9--10-12---------|--9--10-12-------9--10-12---------|
----------------------------------|----------------------------------|
----------------------------------|----------------------------------|


----------------------------------|----------------------------------|
--------------7-----------9--7----|--------------7-----------9--7----|
--------5--7-----------5----------|--------5--7-----------5----------|
--5--7-----------5--7-------------|--5--7-----------5--7-------------|
----------------------------------|----------------------------------|
----------------------------------|----------------------------------|


----------------------------------|--------------------------7------||
----------------------------------|--------------7--------------7---||
-----------7--10-------10-9--7----|--------5--7-----------5--------o||
--7--8--10-------7--8-------------|--5--7-----------5--7-----------o||
----------------------------------|---------------------------------||
----------------------------------|---------------------------------||

M = Palm Mute

--0--------------0----------------|--0-----0--------0-----0----------|
--0--------------0----------------|--0-----0--------0-----0----------|
--2--------------2----------------|--2-----2--------2-----2----------|
--3--3M-3M-3M-3M-3--3M-3M-3M-3M---|--3--3M-3--3M-3M-3--3M-3--3M-3M---|
--3--3M-3M-3M-3M-3--3M-3M-3M-3M---|--3--3M-3--3M-3M-3--3M-3--3M-3M---|
--1--1M-1M-1M-1M-1--1M-1M-1M-1M---|--1--1M-1--1M-1M-1--1M-1--1M-1M---|


--0--------------0----------------|--0-----0--------0-----0----------|
--0--------------0----------------|--0-----0--------0-----0----------|
--0--------------0----------------|--0-----0--------0-----0----------|
--2--2M-2M-2M-2M-2--2M-2M-2M-2M---|--2--2M-2--2M-2M-2--2M-2--2M-2M---|
--2--2M-2M-2M-2M-2--2M-2M-2M-2M---|--2--2M-2--2M-2M-2--2M-2--2M-2M---|
--0--0M-0M-0M-0M-0--0M-0M-0M-0M---|--0--0M-0--0M-0M-0--0M-0--0M-0M---|


--0--------------0----------------|--0-----0--------0-----0----------|
--0--------------0----------------|--0-----0--------0-----0----------|
--2--------------2----------------|--2-----2--------2-----2----------|
--3--3M-3M-3M-3M-3--3M-3M-3M-3M---|--3--3M-3--3M-3M-3--3M-3--3M-3M---|
--3--3M-3M-3M-3M-3--3M-3M-3M-3M---|--3--3M-3--3M-3M-3--3M-3--3M-3M---|
--1--1M-1M-1M-1M-1--1M-1M-1M-1M---|--1--1M-1--1M-1M-1--1M-1--1M-1M---|


--0--------------0----------------|----------------------------------|
--0--------------0----------------|----------------------------------|
--3--3--3--3--3--3--3--3--3--3----|--2--2--2--2--2-------------------|
--3--3M-3M-3M-3M-3--3M-3M-3M-3M---|--2--2--2--2--2--2-----2----------|
--1--1M-1M-1M-1M-1--1M-1M-1M-1M---|--0--0--0--0--0--2-----2----------|
----------------------------------|-----------------0-----0----------|


--0-----------0-----------------0-----------0-------------------|
--0-----------0-----------------0-----------0-------------------|
--2-----------2-------------------------------------------------|
--3-----------3-----------------7-----------7-------------------|
--3-----------3-----------------7-----------7-------------------|
--1-----------1-----------x-----5-----------5-----------x--x----|


--0-----------0-----------------0-----------0-------------------|
--0-----------0-----------------0-----------0-------------------|
--4-----------4-----------------5-----------5-------------------|
--5-----------5-----------------4-----------4-------------------|
--5-----------5-----------------5-----------5-------------------|
--3-----------3-----------x-----------------------------x--x----|


--0-----------0-----------------0-----------0-------------------|
--0-----------0-----------------0-----------0-------------------|
--2-----------2-------------------------------------------------|
--3-----------3-----------------7-----------7-------------------|
--3-----------3-----------------7-----------7-------------------|
--1-----------1-----------x-----5-----------5-----------x--x----|


--0-----------0-----------------0-----------0-------------------|
--0-----------0-----------------0-----------0-------------------|
--4-----------4-----------------5-----------5-------------------|
--5-----------5-----------------4-----------4-------------------|
--5-----------5-----------------5-----------5-------------------|
--3-----------3-----------x-----------------------------x--x----|


--0--0--0--0--0--0--0--0--0--0----|
--0--0--0--0--0--0--0--0--0--0----|
--2--2--2--2--2-------------------|
--3--3--3--3--3--7--7--7--7--7----|
--3--3--3--3--3--7--7--7--7--7----|
--1--1--1--1--1--5--5--5--5--5----|


--0-----0-----0-----0-----0-----0-----------0-------------------|
--0-----0-----0-----0-----0-----0-----------0-------------------|
--4-----4-----4-----4-----4-----5-----------5-------------------|
--5-----5-----5-----5-----5-----4-----------4-------------------|
--5-----5-----5-----5-----5-----5-----------5-------------------|
--3-----3-----3-----3-----3-----------------------------x--x----|


--0-----------0-----------------0-----------0-------------------|
--0-----------0-----------------0-----------0-------------------|
--2-----------2-------------------------------------------------|
--3-----------3-----------------7-----------7-------------------|
--3-----------3-----------------7-----------7-------------------|
--1-----------1-----------x-----5-----------5-----------x--x----|


--0-----------0-----------------0-----------0-------------------|
--0-----------0-----------------0-----------0-------------------|
--4-----------4-----------------5-----------5-------------------|
--5-----------5-----------------4-----------4-------------------|
--5-----------5-----------------5-----------5-------------------|
--3-----------3-----------x-----------------------------x--x----|


----------------------------------|----------------------------------|
--5--5--5--4--4--4----------------|--4--4--4-------------------------|
--------------------5-----5--7----|-----------7--7--7--7--5--5--5----|
-----------------------7----------|----------------------------------|
----------------------------------|----------------------------------|
----------------------------------|----------------------------------|


----------------------------------|----------------------------------|
----------------------------------|----------------------------------|
--8--8--8--7--7--7--7--5--5--5----|--4--4--4--4--4--4--4--4--4--5----|
----------------------------------|----------------------------------|
----------------------------------|----------------------------------|
----------------------------------|----------------------------------|


-------------------|
-------------------|
-------------------|
--7L----------7----|
-------------------|
-------------------|


----------------------------------------------------------------|
----------------------------------------------------------------|
----------------------------------------------------------------|
----------------------------------------------------------------|
----------------------------------------------------------------|
----------------------------------------------------------------|


--0-----------0-----------------0-----------0-------------------|
--0-----------0-----------------0-----------0-------------------|
--2-----------2-------------------------------------------------|
--3-----------3-----------------7-----------7-------------------|
--3-----------3-----------------7-----------7-------------------|
--1-----------1-----------x-----5-----------5-----------x--x----|


--0-----------0-----------------0-----------0-------------------|
--0-----------0-----------------0-----------0-------------------|
--4-----------4-----------------5-----------5-------------------|
--5-----------5-----------------4-----------4-------------------|
--5-----------5-----------------5-----------5-------------------|
--3-----------3-----------x-----------------------------x--x----|


--0-----------0-----------------0-----------0-------------------|
--0-----------0-----------------0-----------0-------------------|
--2-----------2-------------------------------------------------|
--3-----------3-----------------7-----------7-------------------|
--3-----------3-----------------7-----------7-------------------|
--1-----------1-----------x-----5-----------5-----------x--x----|


--0-----0--------0-----0----------|
--0-----0--------0-----0----------|
--4-----4--------5-----5----------|
--5-----5--------4-----4----------|
--5-----5--------5-----5----------|
--3-----3-----x-------------------|


--0-----------0-----------------0-----------0-------------------|
--0-----------0-----------------0-----------0-------------------|
--2-----------2-------------------------------------------------|
--3-----------3-----------------7-----------7-------------------|
--3-----------3-----------------7-----------7-------------------|
--1-----------1-----------x-----5-----------5-----------x--x----|


--0-----------0-----------------0-----------0-------------------|
--0-----------0-----------------0-----------0-------------------|
--4-----------4-----------------5-----------5-------------------|
--5-----------5-----------------4-----------4-------------------|
--5-----------5-----------------5-----------5-------------------|
--3-----------3-----------x-----------------------------x--x----|


--0-----------0-----------------0-----------0-------------------|
--0-----------0-----------------0-----------0-------------------|
--2-----------2-------------------------------------------------|
--3-----------3-----------------7-----------7-------------------|
--3-----------3-----------------7-----------7-------------------|
--1-----------1-----------x-----5-----------5-----------x--x----|


--0-----------0-----------------0-----------0-------------------|
--0-----------0-----------------0-----------0-------------------|
--4-----------4-----------------5-----------5-------------------|
--5-----------5-----------------4-----------4-------------------|
--5-----------5-----------------5-----------5-------------------|
--3-----------3-----------x-----------------------------x--x----|


--0--0--0--0--0--0--0--0--0--0----|
--0--0--0--0--0--0--0--0--0--0----|
--2--2--2--2--2-------------------|
--3--3--3--3--3--7--7--7--7--7----|
--3--3--3--3--3--7--7--7--7--7----|
--1--1--1--1--1--5--5--5--5--5----|


--0-----0-----0-----0-----0-----0-----------0-------------------|
--0-----0-----0-----0-----0-----0-----------0-------------------|
--4-----4-----4-----4-----4-----5-----------5-------------------|
--5-----5-----5-----5-----5-----4-----------4-------------------|
--5-----5-----5-----5-----5-----5-----------5-------------------|
--3-----3-----3-----3-----3-----------------------------x--x----|


--0-----------0-----------------0-----------0-------------------|
--0-----------0-----------------0-----------0-------------------|
--2-----------2-------------------------------------------------|
--3-----------3-----------------7-----------7-------------------|
--3-----------3-----------------7-----------7-------------------|
--1-----------1-----------x-----5-----------5-----------x--x----|


--0-----------0-----------------0-----------0-------------------|
--0-----------0-----------------0-----------0-------------------|
--4-----------4-----------------5-----------5-------------------|
--5-----------5-----------------4-----------4-------------------|
--5-----------5-----------------5-----------5-------------------|
--3-----------3-----------x-----------------------------x--x----|


----------------------------------|----------------------------------|
----------------------------------|----------------------------------|
--10-10-10-9----------------------|----------------------------------|
-----------------10---------------|-----------------10----12---------|
-----------------------12---------|--10----10h12---------------------|
----------------------------------|----------------------------------|


----------------------------------|
----------------------------------|
--12-12-12-9----------------------|
-----------------10---------------|
-----------------------12---------|
----------------------------------|


----------------------------------------------------------------|
----------------------------------------------------------------|
--------------------------------------------------------12------|
--------------------------------10----------12------------------|
--10----------10h---12------------------------------------------|
----------------------------------------------------------------|


----------------------------------------------------------------||
----------------------------------------------------------------||
----------------------------------------------------------------||
----------------------------------------------------------------||
----------------------------------------------------------------||
----------------------------------------------------------------||

            
            
Suggest correction
Creating personal tab
Creating personal tab
You can edit any tab online and save it as your Personal.

You can edit, replace or remove any tab part or add personal notes – all changes will be seen only by you.

Personal tabs can be accessed anytime from any device, even offline.
Learn more »
Give kudos to tab author, rate the tab!
1 2 3 4 5
comments
print report bad tab
guest
You may want to rate the tab now too:
select rating
Wanna post a correction for this tab? Suggest correction