Oops, an error
Loading. Please wait.

Someday Soon chords

by Harlem
16,838 views 30 this week
1 commentread comment
1 2 3 4 5
x 14
add to favorites
×
Save as Personal and add changes to this tab that will be seen only by you. Learn more ›
×
You can save this tab as Personal to edit and correct it or add notes. All changes will be seen only by you. Learn more »
launch autoscroll
font size
0
reset
transpose
0
reset
display chords
guitar tuner
edit
Autoscroll
slow
fast
+/-
esc
set tempo
stop
Difficulty
Strumming
There is no strumming pattern for this song yet. and get +5 IQ
A                           C#m
Someday soon you'll be on fire 
Bm                                C#m
And you'll ask me for a glass of water
A            C#m   Bm                             C#m
And I say, No,         you can just let that shit burn
            A                                  C#m         
And you'll say, Please, please, please put me out
          Bm                             C#m
I promise not to do it again whatever I did to you.
    A                              C#m
Oh please, please, please put me out. 
          Bm                             C#m
I promise not to do it again whatever I did to you.


A                    C#m
Oh please put me out! 
   Bm                  C#m
I promise not to do it again!
A                   C#m
Oh please put me out! 
  Bm                    C#m
I promise not to do it again!
 

(BRIDGE)
D - A x2

D                          A
Dirty lies to get like to me
D                                             A
And even he cant tell that's a suitcase between your knees 
B
Oh I believe that somebody had to leave,
D                    E
But God almighty it couldn't be me!


                 A             C#m
And you'll say, Please put me out!
Bm                      C#m
I promise not to do it again! 
    A             C#m
Oh please put me out!
Bm                    C#m
I promise not to do it again. 

            
            
Suggest correction
Creating personal tab
Creating personal tab
You can edit any tab online and save it as your Personal.

You can edit, replace or remove any tab part or add personal notes – all changes will be seen only by you.

Personal tabs can be accessed anytime from any device, even offline.
Learn more »
comments
print report bad tab
1 comment total.
+4 reply
kalluvsguitar 10 Nov 09, 2010 05:58 AM

for aynone who is playing this its supposed to be all barre chords so the A on the 5th the C#m on the 4th and Bm on the 2nd.. the little bridge part is a bit different it goes

E-------5-5---5--5------|
B-------7-7---5--5------|
G-------6-6---6--6------| x4
D-------7-7---7--7------|
A-------5-5---5--5------|
E-------5-5---5--5------|

then to the A on the 5th.

The chord progression going up before the "solo" is

E-------5------10-----12-----|
B-------5------10-----12-----|
G-------6------11-----13-----| Repeat as neccessary
D-------7------12-----14-----|
A-------7------12-----14-----|
E-------5------10-----12-----|

and the solo is

E---5---9-7-5-0---
B---5-------------
G---6-------------
D---7-------------
A---7-------------
E---5-------------

E---4----7--6--5--4--0----
B-- 5---------------------
G---6---------------------
D---6---------------------
A---4--------------------
E---4---------------------

E--2----------------------|
B--3-----5--7--5--3--5----|
G--4----------------------|
D--4----------------------|
A--2----------------------|
E--2----------------------|

guest
Wanna post a correction for this tab? Suggest correction