Oops, an error
Loading. Please wait.
We have an official Axel F tab made by UG professional guitarists. Check out the tab »
×

Axel F intro tab

24,680 views 1 this week
3 commentsread comments
1 2 3 4 5
x 7
add to favorites
×
Save as Personal and add changes to this tab that will be seen only by you. Learn more ›
×
You can save this tab as Personal to edit and correct it or add notes. All changes will be seen only by you. Learn more »
launch autoscroll
font size
0
reset
how to read this tab
guitar tuner
edit
Autoscroll
slow
fast
+/-
esc
set tempo
stop
Axel F

I was sick of the tabs that have been posted until now because they all move up and down 
the high e string, and for me its no fun playing that.
I simply transposed it down to be very easy. probably not for playing along with the 
but definitely recognizable enough to show your friends how effing cool you are.

EASY 2 Play!

e|-------------------------------------------------------------------------|
B|-------------------------------------------------------------------------|
G|-----------------------------------------2-------------------------------|
D|-----------0--------2-------3-2-------2----------------------------------|
A|-0-3---0-0---0----0-----0-0-----3---0-------0-------2-0------------------|
E|---------------3------------------------------3-3-0----------------------|

            
            
Suggest correction
Creating personal tab
Creating personal tab
You can edit any tab online and save it as your Personal.

You can edit, replace or remove any tab part or add personal notes – all changes will be seen only by you.

Personal tabs can be accessed anytime from any device, even offline.
Learn more »
comments
print report bad tab
3 comments total.
0 reply
yankovicfan3125 70 Jan 12, 2009 02:22 PM

Nice Work, 5 stars. I, too, did not like the high e string way, it was way too hard and uneccesary. This is pimpin man!

0 reply
mihirmathur 10 Jul 30, 2014 10:20 PM

0-1-1-1-1-1-1-1-1--33-3-3

0 reply
bradmanfx 414 Jun 10, 2017 10:21 PM, edited on July 10 2017, 12:10 pm

e--------------------------------------1-----------------------
b---------------------1-----2-1----1--1---------------------
g-----1----3--------------------1-----------------0----31--
d---3---33-3--1--3---33--------3-----3-11-1--3------31
a-----------------------------------------------3--------------

guest
You may want to rate the tab now too:
select rating
Wanna post a correction for this tab? Suggest correction