Oops, an error
Loading. Please wait.

Sense Of Home intro tab

3,679 views 108 this week
3 commentsread comments
1 2 3 4 5
x 9
add to favorites
×
Save as Personal and add changes to this tab that will be seen only by you. Learn more ›
×
You can save this tab as Personal to edit and correct it or add notes. All changes will be seen only by you. Learn more »
launch autoscroll
font size
0
reset
how to read this tab
guitar tuner
edit
Autoscroll
slow
fast
+/-
esc
set tempo
stop
-------------------------------------------------------------------------------
                Harrison Storm - Sense of Home Intro
-------------------------------------------------------------------------------
Tabbed by: Chau Luu
E-mail: chaulink@gmail.com

Tuning: Standard (EADGBe)
Capo: 8th Fret


-------------------------------------------------------------------------------
                           Finger Picking Pattern
-------------------------------------------------------------------------------

   Em                C               G
e|-------0-------------------------------------------------------------||
B|-------0--------0--------3p1-----1p0-----0--------0-------0-------0--||
G|---0--------0--------0-------0-------0--------0-------0-------0------|| 
D|-----2--------2--------2-------2-------0--------0-------0-------0----||  
A|-------------------3-------------------------------------------------||
E|-0---------------------------------3----------------3-------2--------||(x4)

************************************

| p  Pull-off

************************************

            
            
Suggest correction
Creating personal tab
Creating personal tab
You can edit any tab online and save it as your Personal.

You can edit, replace or remove any tab part or add personal notes – all changes will be seen only by you.

Personal tabs can be accessed anytime from any device, even offline.
Learn more »
comments
print report bad tab
3 comments total.
0 reply
e1745 10 Oct 11, 2017 12:11 AM

I graduated high school after going through a french immersion program, meaning you spent 13 years with the same 40 people. One guy played this at our 'french grad', and I happened upon it on spotify a few months later. Great tune.

0 reply
hicmimiyok 10 Oct 14, 2017 07:36 AM, edited at 11:37 am

I think your work is nearly perfect but you missed one thing. Em C G e|-------0-------------------------------------------------------------| B|-------0---------0p1-------1-----1p0-------0-------0-------0------0--| G|---0--------0--------0-------0-------0--------0-------0-------0------| D|-----2--------2--------2-------2-------0--------0-------0-------0----| A|-------------------3-------------------------------------------------| E|-0---------------------------------3----------------3-------2--------|-------0-------------------------------------------------------------||-------0---------0p1------3p1----1p0------0--------0-------0-------0-||---0--------0--------0-------0-------0--------0-------0-------0------|| -----2--------2--------2-------2-------0--------0-------0-------0----||-------------------3-------------------------------------------------|| -0---------------------------------3----------------3-------2--------||I listened the song one more and it should be like this a little bit different.I changed one tihng on your tab it was where the Em chord ends you'll see it probably.Try this and please reply my comment if you think i'm wrong.

+1 reply
hicmimiyok 10 Oct 14, 2017 07:39 AM, edited at 11:43 am

I think your work is nearly perfect but you missed one thing.

e|-------0-------------------------------------------------------------|
B|-------0---------0p1-------1-----1p0-------0-------0-------0------0--|
G|---0--------0--------0-------0-------0--------0-------0-------0------|
D|-----2--------2--------2-------2-------0--------0-------0-------0----|
A|-------------------3-------------------------------------------------|
E|-0---------------------------------3----------------3-------2--------|

-------0-------------------------------------------------------------||
-------0---------0p1------3p1----1p0------0--------0-------0-------0-||
---0--------0--------0-------0-------0--------0-------0-------0------||
-----2--------2--------2-------2-------0--------0-------0-------0----||
-------------------3-------------------------------------------------||
-0---------------------------------3----------------3-------2--------||

I listened the song one more and it should be like this a little bit different.I changed one tihng on your tab it was where the Em chord ends you'll see it probably.Try this and please reply my comment if you think i'm wrong.

guest
You may want to rate the tab now too:
select rating
Wanna post a correction for this tab? Suggest correction