Oops, an error
Loading. Please wait.

Dear Constable bass

443 views 3 this week
no commentswrite comment
1 2 3 4 5
2 more votes to show rating
add to favorites
×
Save as Personal and add changes to this tab that will be seen only by you. Learn more ›
×
You can save this tab as Personal to edit and correct it or add notes. All changes will be seen only by you. Learn more »
launch autoscroll
font size
0
reset
guitar tuner
edit
Autoscroll
slow
fast
+/-
esc
set tempo
stop
Author
Difficulty
Ok well this is one of my favourite songs and i noticed no one has tabbed the
bass to it, so i decided to do it myself. this is the first song ive tabbed so yeh... be 
and enjoy.

Intro

G:------------------------|
D:------------------------|
A:------------------------|
E:-4-4/16-16\4-4/16-16\---|

Pre-Verse

G:----------|
D:----------|
A:------7---|   X7
E:-4-99-----|

End on

G:----
D:----
A:----
E:-4--

Verse

G:----------------------    --------------------------|
D:----------------------    --------------------------|
A:------77-7------------ X2 -------77-7---------------|
E:-44-4------77-7-9-7-9-    --44-4------77-7/12-11-9--|

Pre Chorus

G:-----------------------|
D:-----------------------|
A:----------------7------| X2
E:-44-4-99-9-77-7---7-9--|

G:-----------------------|
D:-----------------------|
A:----------------7-6----|
E:-44-4-99-9-77-7-----9--|

G:-----------------------|
D:-----------------------|
A:----------------7------|
E:-44-4-99-9-77-7---7-9--|

G:-----------------------|
D:-----------------------|
A:----------------7-6----|
E:-44-4-99-9-77-7-----9--|

Chorus

G:---------------------------------------------------|
D:---------------------------------------------------|
A:---------------------------------------------------|
E:-44-2-44-4-77-4-77-11-1212-11-1212-7-99-7-99\2/4---|

G:---------------------------------------------------|
D:---------------------------------------------------|
A:---------------------------------------------------|
E:-44-2-44-4-77-4-77-11-1212-11-1212-7-99-7-12\11\9--|

G:---------------------------------------------------|
D:---------------------------------------------------|
A:---------------------------------------------------|
E:-44-2-44-4-77-4-77-11-1212-11-1212-7-99-7-12\11\9--|

------------------------------------------------------

G:---------------|
D:---------------|    Only after the first chorus
A:---------------|
E:--4\------4\---|

------------------------------------------------------

Repeat Verse
Repeat Pre-Chorus
Repeat Chorus

During solo

G:-----------------------------------------------------|
D:-----------------------------------------------------|
A:-----------------------------------------------------|
E:--44/7-4-2-4/77-9-7-4-7/1212-11-12-11\7-99-7/12\11\9-|

Then

G:----------            G:-----|
D:----------            D:-----|
A:--------7- X10 End on A:-----|
E:--4/9-7---            E:--4--|

G:----------|
D:----------|
A:----------|
E:-4/12\7---|

G:----------|
D:----------|
A:----------|
E:-4\0/7----|

G:----------|
D:----------|
A:----------|
E:-4/9\7----|

G:-----------------------|
D:-----------------------|
A:------77-7-7-6-7-9-7-9-|
E:-44-4------------------|

Repeat chorus

Outro

G:-----------------------------------------------------------|
D:-----------------------------------------------------------|
A:-----------------------------------------------------------|
E:--44-4/11-9-11-77-7/14-12-11-1212-12/14-12-11-99-9/12-11-9-|

G:----------------------------------------------------------------|
D:----------------------------------------------------------------|
A:----------------------------------------------------------------|
E:--44-4/11-9-11-77-7/14-12-11-1212-12/14-12-11-1414/16-14-12/16--|

            
            
Suggest correction
Creating personal tab
Creating personal tab
You can edit any tab online and save it as your Personal.

You can edit, replace or remove any tab part or add personal notes – all changes will be seen only by you.

Personal tabs can be accessed anytime from any device, even offline.
Learn more »
Give kudos to tab author, rate the tab!
1 2 3 4 5
comments
print report bad tab
guest
You may want to rate the tab now too:
select rating
Wanna post a correction for this tab? Suggest correction