Oops, an error
Loading. Please wait.

Lime In The Coconut Reservoir Dogs tab

18,200 views 6 this week
2 commentsread comments
1 2 3 4 5
x 28
add to favorites
×
Save as Personal and add changes to this tab that will be seen only by you. Learn more ›
×
You can save this tab as Personal to edit and correct it or add notes. All changes will be seen only by you. Learn more »
launch autoscroll
font size
0
reset
how to read this tab
guitar tuner
edit
Autoscroll
slow
fast
+/-
esc
set tempo
stop
This is the end of Reservoir Dogs during the credits. Repeat throughout

Tuning:standard

e|-------------------------------------------------------------------------|
B|-------1-----------1---------1----------1--------------------------------|
G|-----------3---------3------------3----------3---------------------------|
D|-------------2----------------------2------------------------------------|
A|-------3-------3-------------3--------3----------------------------------|
E|-------------------------------------------------------------------------|

            
            
Suggest correction
Creating personal tab
Creating personal tab
You can edit any tab online and save it as your Personal.

You can edit, replace or remove any tab part or add personal notes – all changes will be seen only by you.

Personal tabs can be accessed anytime from any device, even offline.
Learn more »
comments
print report bad tab
2 comments total.
+4 reply
acastro 10 Nov 07, 2010 10:33 PM

The second bass note should be a G played on the 3rd fret of the low E (6th string).

e|-------------------------------------------------------------------------|
B|-------1-----------1---------1----------1--------------------------------|
G|-----------3---------3------------3----------3---------------------------|
D|-------------2----------------------2------------------------------------|
A|-------3---------------------3-------------------------------------------|
E|---------------3----------------------3----------------------------------|

+3 reply
acastro 10 Nov 07, 2010 10:39 PM

Forgot to mention the second arpeggio is missing an E played on the D string 2nd fret. Here's the full tab:

e|-------------------------------------------------------------------------|
B|-------1-----------1---------1------------1------------------------------|
G|-----------3---------3------------3----------3---------------------------|
D|-------------2---------2------------2----------2-------------------------|
A|-------3---------------------3-------------------------------------------|
E|---------------3----------------------3----------------------------------|

guest
Wanna post a correction for this tab? Suggest correction