Oops, an error
Loading. Please wait.

From The Dining Table tab

version 2
version 2

Whole song

2,161 views 78 this week
no commentswrite comment
1 2 3 4 5
x 4
add to favorites
×
Save as Personal and add changes to this tab that will be seen only by you. Learn more ›
×
You can save this tab as Personal to edit and correct it or add notes. All changes will be seen only by you. Learn more »
launch autoscroll
font size
0
reset
how to read this tab
guitar tuner
edit
Autoscroll
slow
fast
+/-
esc
set tempo
stop
The intro and verse go on constantly, with the first riff playing at the beginning of every sentence and
the last note hanging on until the next line starts. The timing is pretty easy, so I'm not writing the lyrics
out for that

[Intro/Verse] -- repeated various times depending on which verse you're on

e|---------------------------------------------------------------------------|
B|---------------------------------------------------------------------------|
G|---------------------------------------------------------------------------|
D|-5-3-1--3-1-----1-3/5-----5-3-1-3-1-1-1------------------------------------|
A|------------1-3------------------------------------------------------------|
E|---------------------------------------------------------------------------|

[Chorus]

e|----------------------------------|
B|-------2-2--2---------------------|
G|-0-1-3--------1-3-0---------------|     x3
D|----------------------------------|   
A|----------------------------------|
E|----------------------------------|

The next part is tricky. I usually play a Bbm chord down four times, then I leave my index down while the 
rest of my fingers transition to the Fm and use that for the up strum, 
then do a quick Fm with a slap on the strings at the end before going back to the intro and chorus. 


"Even my phone..."
                    D D D D U D
e|------------------1-1-1-1-1-1------------------------------------------------|
B|------------------2-2-2-2-1-1------------------------------------------------|
G|-0-1-3------------3-3-3-3-1-3------------------------------------------------|
D|-------3--3-3-5---3-3-3-3-1-3------------------------------------------------|
A|------------------1-1-1-1-1-1------------------------------------------------|
E|-----------------------------------------------------------------------------|



[Outro]

e|---------------------------------------------------------------------------|
B|---------------------------------------------------------------------------|
G|---------------------------------------------------------------------------|
D|-5-3-1--1-3-----1-3/5-----5-3-1-3-1-1-1------------------------------------|
A|------------1-3------------------------------------------------------------|
E|---------------------------------------------------------------------------|



            
            
Suggest correction
Creating personal tab
Creating personal tab
You can edit any tab online and save it as your Personal.

You can edit, replace or remove any tab part or add personal notes – all changes will be seen only by you.

Personal tabs can be accessed anytime from any device, even offline.
Learn more »
comments
print report bad tab
guest
You may want to rate the tab now too:
select rating
Wanna post a correction for this tab? Suggest correction