Oops, an error
Loading. Please wait.

Sign Of The Times tab

version 1
version 1

Whole song

  • Fully structured tab with song timings, easy to follow.
  • This Version Is For lead guitar, it is recommended... Show more

Video

  • High quality video with on screen tab, easy to follow.
9,916 views 126 this week
no commentswrite comment
1 2 3 4 5
x 5
add to favorites
×
Save as Personal and add changes to this tab that will be seen only by you. Learn more ›
×
You can save this tab as Personal to edit and correct it or add notes. All changes will be seen only by you. Learn more »
launch autoscroll
font size
0
reset
how to read this tab
guitar tuner
edit
Autoscroll
slow
fast
+/-
esc
set tempo
stop
About this tab version
Fully structured tab with song timings, easy to follow. Was this info helpful? Yes No
===========================================
VIDEO LESSON TO ACCOMPANY THIS TAB:
https://www.youtube.com/watch?v=Jt5dpZKB1zo
===========================================

CHORDS USED:
     
     F       Dm      C       Bm
e|---1---|---1---|---0---|---1---|
B|---1---|---3---|---1---|---3---|
G|---2---|---2---|---0---|---3---|
D|---3---|---0---|---2---|---3---|
A|-------|-------|---3---|---1---|
E|-------|-------|-------|-------|
==================================


[INTRO]
0.00 - 0.16
e|--1---1---1---1--|--1---1---1---1--|--0---0---0---0--|--0---0---0---0--|
B|--1---1---1---1--|--3---3---3---3--|--1---1---1---1--|--1---1---1---1--|
G|--2---2---2---2--|--2---2---2---2--|--0---0---0---0--|--0---0---0---0--| 
D|--3---3---3---3--|--0---0---0---0--|--2---2---2---2--|--2---2---2---2--|
A|-----------------|-----------------|--3---3---3---3--|--3---3---3---3--|
E|-----------------|-----------------|-----------------|-----------------|


[VERSE]
0.17 - 0.50
"Just stop your crying, it's a sign of the times..."
e|--1---1---1---1--|--1---1---1---1--|--0---0---0---0--|--0---0---0---0--|
B|--1---1---1---1--|--3---3---3---3--|--1---1---1---1--|--1---1---1---1--|
G|--2---2---2---2--|--2---2---2---2--|--0---0---0---0--|--0---0---0---0--| 
D|--3---3---3---3--|--0---0---0---0--|--2---2---2---2--|--2---2---2---2--|
A|-----------------|-----------------|--3---3---3---3--|--3---3---3---3--|
E|-----------------|-----------------|-----------------|-----------------|

e|--1---1---1---1--|--1---1---1---1--|--0---0---0---0--|--0---0---0---0--|
B|--1---1---1---1--|--3---3---3---3--|--1---1---1---1--|--1---1---1---1--|
G|--2---2---2---2--|--2---2---2---2--|--0---0---0---0--|--0---0---0---0--| 
D|--3---3---3---3--|--0---0---0---0--|--2---2---2---2--|--2---2---2---2--|
A|-----------------|-----------------|--3---3---3---3--|--3---3---3---3--|
E|-----------------|-----------------|-----------------|-----------------|


[PRE-CHORUS]
0.51 - 1.20
"We never learn, we been here before..."
e|--1---1---1---1--|--1---1---1---1--|--0---0---0---0--|--0---0---0---0--|
B|--1---1---1---1--|--3---3---3---3--|--1---1---1---1--|--1---1---1---1--|
G|--2---2---2---2--|--2---2---2---2--|--0---0---0---0--|--0---0---0---0--| 
D|--3---3---3---3--|--0---0---0---0--|--2---2---2---2--|--2---2---2---2--|
A|-----------------|-----------------|--3---3---3---3--|--3---3---3---3--|
E|-----------------|-----------------|-----------------|-----------------|

e|--1---1---1---1--|--1---1---1---1--|--0---0---0---0--|--0---0---0---0--|
B|--1---1---1---1--|--3---3---3---3--|--1---1---1---1--|--1---1---1---1--|
G|--2---2---2---2--|--2---2---2---2--|--0---0---0---0--|--0---0---0---0--| 
D|--3---3---3---3--|--0---0---0---0--|--2---2---2---2--|--2---2---2---2--|
A|-----------------|-----------------|--3---3---3---3--|--3---3---3---3--|
E|-----------------|-----------------|-----------------|-----------------|


[CHORUS]
1.21 - 1.52
"Just stop your crying it's a sign of the times..."
e|--1---1-1-1---1-1---1-1-1-1---1-1--|--1---1-1-1---1-1---1-1-1-1---1-1--|
B|--1---1-1-1---1-1---1-1-1-1---1-1--|--3---3-3-3---3-3---3-3-3-3---3-3--| 
G|--2---2-2-2---2-2---2-2-2-2---2-2--|--2---2-2-2---2-2---2-2-2-2---2-2--| 
D|--3---3-3-3---3-3---3-3-3-3---3-3--|--0---0-0-0---0-0---0-0-0-0---0-0--|
A|-----------------------------------|-----------------------------------|
E|-----------------------------------|-----------------------------------|
    D   D U D   D U   U D U D   D U     D   D U D   D U   U D U D   D U 

e|--0---0-0-0---0-0---0-0-0-0---0-0--|--0---0-0-0---0-0---0-0-0-0---0-0--|
B|--1---1-1-1---1-1---1-1-1-1---1-1--|--1---1-1-1---1-1---1-1-1-1---1-1--|
G|--0---0-0-0---0-0---0-0-0-0---0-0--|--0---0-0-0---0-0---0-0-0-0---0-0--| 
D|--2---2-2-2---2-2---2-2-2-2---2-2--|--2---2-2-2---2-2---2-2-2-2---2-2--|
A|--3---3-3-3---3-3---3-3-3-3---3-3--|--3---3-3-3---3-3---3-3-3-3---3-3--|
E|-----------------------------------|-----------------------------------|
    D   D U D   D U   U D U D   D U     D   D U D   D U   U D U D   D U 

e|--1---1-1-1---1-1---1-1-1-1---1-1--|--1---1-1-1---1-1---1-1-1-1---1-1--|
B|--1---1-1-1---1-1---1-1-1-1---1-1--|--3---3-3-3---3-3---3-3-3-3---3-3--| 
G|--2---2-2-2---2-2---2-2-2-2---2-2--|--2---2-2-2---2-2---2-2-2-2---2-2--| 
D|--3---3-3-3---3-3---3-3-3-3---3-3--|--0---0-0-0---0-0---0-0-0-0---0-0--|
A|-----------------------------------|-----------------------------------|
E|-----------------------------------|-----------------------------------|
    D   D U D   D U   U D U D   D U     D   D U D   D U   U D U D   D U 

e|--0---0-0-0---0-0---0-0-0-0---0-0--|--0---0-0-0---0-0---0-0-0-0---0-0--|
B|--1---1-1-1---1-1---1-1-1-1---1-1--|--1---1-1-1---1-1---1-1-1-1---1-1--|
G|--0---0-0-0---0-0---0-0-0-0---0-0--|--0---0-0-0---0-0---0-0-0-0---0-0--| 
D|--2---2-2-2---2-2---2-2-2-2---2-2--|--2---2-2-2---2-2---2-2-2-2---2-2--|
A|--3---3-3-3---3-3---3-3-3-3---3-3--|--3---3-3-3---3-3---3-3-3-3---3-3--|
E|-----------------------------------|-----------------------------------|
    D   D U D   D U   U D U D   D U     D   D U D   D U   U D U D   D U 


[VERSE]
1.53 - 2.24
"Just stop your crying, have the time of your life..."
e|--1---1---1---1--|--1---1---1---1--|--0---0---0---0--|--0---0---0---0--|
B|--1---1---1---1--|--3---3---3---3--|--1---1---1---1--|--1---1---1---1--|
G|--2---2---2---2--|--2---2---2---2--|--0---0---0---0--|--0---0---0---0--| 
D|--3---3---3---3--|--0---0---0---0--|--2---2---2---2--|--2---2---2---2--|
A|-----------------|-----------------|--3---3---3---3--|--3---3---3---3--|
E|-----------------|-----------------|-----------------|-----------------|

e|--1---1---1---1--|--1---1---1---1--|--0---0---0---0--|--0---0---0---0--|
B|--1---1---1---1--|--3---3---3---3--|--1---1---1---1--|--1---1---1---1--|
G|--2---2---2---2--|--2---2---2---2--|--0---0---0---0--|--0---0---0---0--| 
D|--3---3---3---3--|--0---0---0---0--|--2---2---2---2--|--2---2---2---2--|
A|-----------------|-----------------|--3---3---3---3--|--3---3---3---3--|
E|-----------------|-----------------|-----------------|-----------------|


[PRE-CHORUS]
2.25 - 2.55
"We never learn, we been here before..."
e|--1---1---1---1--|--1---1---1---1--|--0---0---0---0--|--0---0---0---0--|
B|--1---1---1---1--|--3---3---3---3--|--1---1---1---1--|--1---1---1---1--|
G|--2---2---2---2--|--2---2---2---2--|--0---0---0---0--|--0---0---0---0--| 
D|--3---3---3---3--|--0---0---0---0--|--2---2---2---2--|--2---2---2---2--|
A|-----------------|-----------------|--3---3---3---3--|--3---3---3---3--|
E|-----------------|-----------------|-----------------|-----------------|

e|--1---1---1---1--|--1---1---1---1--|--0---0---0---0--|--0---0---0---0--|
B|--1---1---1---1--|--3---3---3---3--|--1---1---1---1--|--1---1---1---1--|
G|--2---2---2---2--|--2---2---2---2--|--0---0---0---0--|--0---0---0---0--| 
D|--3---3---3---3--|--0---0---0---0--|--2---2---2---2--|--2---2---2---2--|
A|-----------------|-----------------|--3---3---3---3--|--3---3---3---3--|
E|-----------------|-----------------|-----------------|-----------------|


[CHORUS]
2.56 - 3.29
"Just stop your crying it's a sign of the times..."
e|--1---1-1-1---1-1---1-1-1-1---1-1--|--1---1-1-1---1-1---1-1-1-1---1-1--|
B|--1---1-1-1---1-1---1-1-1-1---1-1--|--3---3-3-3---3-3---3-3-3-3---3-3--|
G|--2---2-2-2---2-2---2-2-2-2---2-2--|--2---2-2-2---2-2---2-2-2-2---2-2--| 
D|--3---3-3-3---3-3---3-3-3-3---3-3--|--0---0-0-0---0-0---0-0-0-0---0-0--|
A|-----------------------------------|-----------------------------------|
E|-----------------------------------|-----------------------------------|
    D   D U D   D U   U D U D   D U     D   D U D   D U   U D U D   D U 

e|--0---0-0-0---0-0---0-0-0-0---0-0--|--0---0-0-0---0-0---0-0-0-0---0-0--|
B|--1---1-1-1---1-1---1-1-1-1---1-1--|--1---1-1-1---1-1---1-1-1-1---1-1--|
G|--0---0-0-0---0-0---0-0-0-0---0-0--|--0---0-0-0---0-0---0-0-0-0---0-0--| 
D|--2---2-2-2---2-2---2-2-2-2---2-2--|--2---2-2-2---2-2---2-2-2-2---2-2--|
A|--3---3-3-3---3-3---3-3-3-3---3-3--|--3---3-3-3---3-3---3-3-3-3---3-3--|
E|-----------------------------------|-----------------------------------|
    D   D U D   D U   U D U D   D U     D   D U D   D U   U D U D   D U 

e|--1---1-1-1---1-1---1-1-1-1---1-1--|--1---1-1-1---1-1---1-1-1-1---1-1--|
B|--1---1-1-1---1-1---1-1-1-1---1-1--|--3---3-3-3---3-3---3-3-3-3---3-3--|
G|--2---2-2-2---2-2---2-2-2-2---2-2--|--2---2-2-2---2-2---2-2-2-2---2-2--| 
D|--3---3-3-3---3-3---3-3-3-3---3-3--|--0---0-0-0---0-0---0-0-0-0---0-0--|
A|-----------------------------------|-----------------------------------|
E|-----------------------------------|-----------------------------------|
    D   D U D   D U   U D U D   D U     D   D U D   D U   U D U D   D U 

e|--0---0-0-0---0-0---0-0-0-0---0-0--|--0---0-0-0---0-0---0-0-0-0---0-0--|
B|--1---1-1-1---1-1---1-1-1-1---1-1--|--1---1-1-1---1-1---1-1-1-1---1-1--|
G|--0---0-0-0---0-0---0-0-0-0---0-0--|--0---0-0-0---0-0---0-0-0-0---0-0--| 
D|--2---2-2-2---2-2---2-2-2-2---2-2--|--2---2-2-2---2-2---2-2-2-2---2-2--|
A|--3---3-3-3---3-3---3-3-3-3---3-3--|--3---3-3-3---3-3---3-3-3-3---3-3--|
E|-----------------------------------|-----------------------------------|
    D   D U D   D U   U D U D   D U     D   D U D   D U   U D U D   D U 


[PRE-CHORUS]
3.30 - 4.00
"We never learn, we been here before..."
e|--1---1-1-1---1-1---1-1-1-1---1-1--|--1---1-1-1---1-1---1-1-1-1---1-1--|
B|--1---1-1-1---1-1---1-1-1-1---1-1--|--3---3-3-3---3-3---3-3-3-3---3-3--|
G|--2---2-2-2---2-2---2-2-2-2---2-2--|--2---2-2-2---2-2---2-2-2-2---2-2--| 
D|--3---3-3-3---3-3---3-3-3-3---3-3--|--0---0-0-0---0-0---0-0-0-0---0-0--|
A|-----------------------------------|-----------------------------------|
E|-----------------------------------|-----------------------------------|
    D   D U D   D U   U D U D   D U     D   D U D   D U   U D U D   D U 

e|--0---0-0-0---0-0---0-0-0-0---0-0--|--0---0-0-0---0-0---0-0-0-0---0-0--|
B|--1---1-1-1---1-1---1-1-1-1---1-1--|--1---1-1-1---1-1---1-1-1-1---1-1--|
G|--0---0-0-0---0-0---0-0-0-0---0-0--|--0---0-0-0---0-0---0-0-0-0---0-0--| 
D|--2---2-2-2---2-2---2-2-2-2---2-2--|--2---2-2-2---2-2---2-2-2-2---2-2--|
A|--3---3-3-3---3-3---3-3-3-3---3-3--|--3---3-3-3---3-3---3-3-3-3---3-3--|
E|-----------------------------------|-----------------------------------|
    D   D U D   D U   U D U D   D U     D   D U D   D U   U D U D   D U 

e|--1---1-1-1---1-1---1-1-1-1---1-1--|--1---1-1-1---1-1---1-1-1-1---1-1--|
B|--1---1-1-1---1-1---1-1-1-1---1-1--|--3---3-3-3---3-3---3-3-3-3---3-3--|
G|--2---2-2-2---2-2---2-2-2-2---2-2--|--2---2-2-2---2-2---2-2-2-2---2-2--| 
D|--3---3-3-3---3-3---3-3-3-3---3-3--|--0---0-0-0---0-0---0-0-0-0---0-0--|
A|-----------------------------------|-----------------------------------|
E|-----------------------------------|-----------------------------------|
    D   D U D   D U   U D U D   D U     D   D U D   D U   U D U D   D U 

e|--0---0-0-0---0-0---0-0-0-0---0-0--|--0---0-0-0---0-0---0-0-0-0---0-0--|
B|--1---1-1-1---1-1---1-1-1-1---1-1--|--1---1-1-1---1-1---1-1-1-1---1-1--|
G|--0---0-0-0---0-0---0-0-0-0---0-0--|--0---0-0-0---0-0---0-0-0-0---0-0--| 
D|--2---2-2-2---2-2---2-2-2-2---2-2--|--2---2-2-2---2-2---2-2-2-2---2-2--|
A|--3---3-3-3---3-3---3-3-3-3---3-3--|--3---3-3-3---3-3---3-3-3-3---3-3--|
E|-----------------------------------|-----------------------------------|
    D   D U D   D U   U D U D   D U     D   D U D   D U   U D U D   D U 


[BRIDGE]
4.01 - 4.32 
"We don't talk enough,  we should open up before it's all too much..."
e|--1---1-1-1---1-1---1-1-1-1---1-1--|--1---1-1-1---1-1---1-1-1-1---1-1--|
B|--1---1-1-1---1-1---1-1-1-1---1-1--|--3---3-3-3---3-3---3-3-3-3---3-3--|
G|--2---2-2-2---2-2---2-2-2-2---2-2--|--2---2-2-2---2-2---2-2-2-2---2-2--| 
D|--3---3-3-3---3-3---3-3-3-3---3-3--|--0---0-0-0---0-0---0-0-0-0---0-0--|
A|-----------------------------------|-----------------------------------|
E|-----------------------------------|-----------------------------------|
    D   D U D   D U   U D U D   D U     D   D U D   D U   U D U D   D U 

e|--0---0-0-0---0-0---0-0-0-0---0-0--|--1---1-1-1---1-1---1-1-1-1---1-1--|
B|--1---1-1-1---1-1---1-1-1-1---1-1--|--3---3-3-3---3-3---3-3-3-3---3-3--|
G|--0---0-0-0---0-0---0-0-0-0---0-0--|--3---3-3-3---3-3---3-3-3-3---3-3--| 
D|--2---2-2-2---2-2---2-2-2-2---2-2--|--3---3-3-3---3-3---3-3-3-3---3-3--|
A|--3---3-3-3---3-3---3-3-3-3---3-3--|--1---1-1-1---1-1---1-1-1-1---1-1--|
E|-----------------------------------|-----------------------------------|
    D   D U D   D U   U D U D   D U     D   D U D   D U   U D U D   D U 

e|--1---1-1-1---1-1---1-1-1-1---1-1--|--1---1-1-1---1-1---1-1-1-1---1-1--|
B|--1---1-1-1---1-1---1-1-1-1---1-1--|--3---3-3-3---3-3---3-3-3-3---3-3--|
G|--2---2-2-2---2-2---2-2-2-2---2-2--|--2---2-2-2---2-2---2-2-2-2---2-2--| 
D|--3---3-3-3---3-3---3-3-3-3---3-3--|--0---0-0-0---0-0---0-0-0-0---0-0--|
A|-----------------------------------|-----------------------------------|
E|-----------------------------------|-----------------------------------|
    D   D U D   D U   U D U D   D U     D   D U D   D U   U D U D   D U 

e|--0---0-0-0---0-0---0-0-0-0---0-0--|--1---1-1-1---1-1---1-1-1-1---1-1--|
B|--1---1-1-1---1-1---1-1-1-1---1-1--|--3---3-3-3---3-3---3-3-3-3---3-3--|
G|--0---0-0-0---0-0---0-0-0-0---0-0--|--3---3-3-3---3-3---3-3-3-3---3-3--| 
D|--2---2-2-2---2-2---2-2-2-2---2-2--|--3---3-3-3---3-3---3-3-3-3---3-3--|
A|--3---3-3-3---3-3---3-3-3-3---3-3--|--1---1-1-1---1-1---1-1-1-1---1-1--|
E|-----------------------------------|-----------------------------------|
    D   D U D   D U   U D U D   D U     D   D U D   D U   U D U D   D U 


[OUTRO a]
4.33 - 4.49
"Just stop your crying it's a sign of the times..."
e|--1---1-1-1---1-1---1-1-1-1---1-1--|--1---1-1-1---1-1---1-1-1-1---1-1--|
B|--1---1-1-1---1-1---1-1-1-1---1-1--|--3---3-3-3---3-3---3-3-3-3---3-3--|
G|--2---2-2-2---2-2---2-2-2-2---2-2--|--2---2-2-2---2-2---2-2-2-2---2-2--| 
D|--3---3-3-3---3-3---3-3-3-3---3-3--|--0---0-0-0---0-0---0-0-0-0---0-0--|
A|-----------------------------------|-----------------------------------|
E|-----------------------------------|-----------------------------------|
    D   D U D   D U   U D U D   D U     D   D U D   D U   U D U D   D U 

e|--0---0-0-0---0-0---0-0-0-0---0-0--|--1---1-1-1---1-1---1-1-1-1---1-1--|
B|--1---1-1-1---1-1---1-1-1-1---1-1--|--3---3-3-3---3-3---3-3-3-3---3-3--|
G|--0---0-0-0---0-0---0-0-0-0---0-0--|--3---3-3-3---3-3---3-3-3-3---3-3--| 
D|--2---2-2-2---2-2---2-2-2-2---2-2--|--3---3-3-3---3-3---3-3-3-3---3-3--|
A|--3---3-3-3---3-3---3-3-3-3---3-3--|--1---1-1-1---1-1---1-1-1-1---1-1--|
E|-----------------------------------|-----------------------------------|
    D   D U D   D U   U D U D   D U     D   D U D   D U   U D U D   D U 


[OUTRO b]
4.50 - 5.04
"We got to get away..."
e|--1---1-1-1---1-1---1-1-1-1---1-1--|--1---1-1-1---1-1---1-1-1-1---1-1--|
B|--1---1-1-1---1-1---1-1-1-1---1-1--|--3---3-3-3---3-3---3-3-3-3---3-3--|
G|--2---2-2-2---2-2---2-2-2-2---2-2--|--2---2-2-2---2-2---2-2-2-2---2-2--| 
D|--3---3-3-3---3-3---3-3-3-3---3-3--|--0---0-0-0---0-0---0-0-0-0---0-0--|
A|-----------------------------------|-----------------------------------|
E|-----------------------------------|-----------------------------------|
    D   D U D   D U   U D U D   D U     D   D U D   D U   U D U D   D U 

e|--0---0-0-0---0-0---0-0-0-0---0-0--|--0---0-0-0---0-0---0-0-0-0---0-0--|
B|--1---1-1-1---1-1---1-1-1-1---1-1--|--1---1-1-1---1-1---1-1-1-1---1-1--|
G|--0---0-0-0---0-0---0-0-0-0---0-0--|--0---0-0-0---0-0---0-0-0-0---0-0--| 
D|--2---2-2-2---2-2---2-2-2-2---2-2--|--2---2-2-2---2-2---2-2-2-2---2-2--|
A|--3---3-3-3---3-3---3-3-3-3---3-3--|--3---3-3-3---3-3---3-3-3-3---3-3--|
E|-----------------------------------|-----------------------------------|
    D   D U D   D U   U D U D   D U     D   D U D   D U   U D U D   D U 


[OUTRO a]
4.33 - 4.49
"We got to, we got to run..."
e|--1---1-1-1---1-1---1-1-1-1---1-1--|--1---1-1-1---1-1---1-1-1-1---1-1--|
B|--1---1-1-1---1-1---1-1-1-1---1-1--|--3---3-3-3---3-3---3-3-3-3---3-3--|
G|--2---2-2-2---2-2---2-2-2-2---2-2--|--2---2-2-2---2-2---2-2-2-2---2-2--| 
D|--3---3-3-3---3-3---3-3-3-3---3-3--|--0---0-0-0---0-0---0-0-0-0---0-0--|
A|-----------------------------------|-----------------------------------|
E|-----------------------------------|-----------------------------------|
    D   D U D   D U   U D U D   D U     D   D U D   D U   U D U D   D U 

e|--0---0-0-0---0-0---0-0-0-0---0-0--|--1---1-1-1---1-1---1-1-1-1---1-1--|
B|--1---1-1-1---1-1---1-1-1-1---1-1--|--3---3-3-3---3-3---3-3-3-3---3-3--|
G|--0---0-0-0---0-0---0-0-0-0---0-0--|--3---3-3-3---3-3---3-3-3-3---3-3--| 
D|--2---2-2-2---2-2---2-2-2-2---2-2--|--3---3-3-3---3-3---3-3-3-3---3-3--|
A|--3---3-3-3---3-3---3-3-3-3---3-3--|--1---1-1-1---1-1---1-1-1-1---1-1--|
E|-----------------------------------|-----------------------------------|
    D   D U D   D U   U D U D   D U     D   D U D   D U   U D U D   D U 


[END ON]
5.21 - To End
e|-1---------------|-----------------|-----------------|-----------------|
B|-1---------------|-----------------|-----------------|-----------------|
G|-2---------------|-----------------|-----------------|-----------------| 
D|-3---------------|-----------------|-----------------|-----------------|
A|-----------------|-----------------|-----------------|-----------------|
E|-----------------|-----------------|-----------------|-----------------|


************************************

| D   Down strum
| U   Up strum

************************************

            
            
Suggest correction
Creating personal tab
Creating personal tab
You can edit any tab online and save it as your Personal.

You can edit, replace or remove any tab part or add personal notes – all changes will be seen only by you.

Personal tabs can be accessed anytime from any device, even offline.
Learn more »
comments
print report bad tab
guest
You may want to rate the tab now too:
select rating
Wanna post a correction for this tab? Suggest correction