Oops, an error
Loading. Please wait.

Sign Of The Times tab

version 2
version 2

Whole song

  • Fully structured tab with song timings, easy to follow.
  • This Version Is For lead guitar, it is recommended... Show more

Video

  • High quality video with on screen tab, easy to follow.
460 views 3 this week
no commentswrite comment
1 2 3 4 5
2 more votes to show rating
add to favorites
×
Save as Personal and add changes to this tab that will be seen only by you. Learn more ›
×
You can save this tab as Personal to edit and correct it or add notes. All changes will be seen only by you. Learn more »
launch autoscroll
font size
0
reset
how to read this tab
guitar tuner
edit
Autoscroll
slow
fast
+/-
esc
set tempo
stop
About this tab version
This Version Is For lead guitar, it is recommended electric guitar of simple pickup, model stratocaster. Was this info helpful? Yes No
 Sign of The Times

                   (Harry Styles)
                 By Elian De La Rosa
                   © Copyright ©
                       2017
                    120bpm 4/4

Demostration: https://youtu.be/pz6HpqH7Xi8


[Verse]F                                  Dm             C
E|---------------------------------------|-----------|-------------------|
B|---------------------------------------|-----------|-------------------|
G|-10-10-10----10----10-10-10-10--12--9--|7 ~ ~------|--7-9-7-9-7-9-7-5--|
D|---------------------------------------|-----------|-------------------|
A|---------------------------------------|-----------|-------------------|
E|---------------------------------------|-----------|-------------------|

                 CMaj7
E|-----------------------|
B|-----------------------|
G|-9-7-9-7-9-7-9-7--7-5--|
D|-----------------------|
A|-----------------------|
E|-----------------------|

[Pre-Chorus]   
   F                                   Dm        C                  CMaj7   
E|---------------------------------------|----------------|--------------|
B|---------------------------------------|----------------|-----8--------|
G|-10-9-10 ~---10 ~--10-9-10-12-10-9--7--|-9-7-9-7-9-5----|--7br9---5----|
D|---------------------------------------|----------------|--------------|
A|---------------------------------------|----------------|--------------|
E|---------------------------------------|----------------|--------------|
  
   F                            Dm                              C
E|----------------------------|----------------------------|--------------|
B|13-10-13-10-8-10--6-8/10-10-|-12/13-10-12-10-8-10-6/8-10-|-10-8--13-----|
G|----------------------------|----------------------------|--------------|
D|----------------------------|----------------------------|--------------|
A|----------------------------|----------------------------|--------------|
E|----------------------------|----------------------------|--------------|
 
       CMaj7
E|-----------------|
B|--13-10----------|
G|--------12-------|
D|-----------------|
A|-----------------|
E|-----------------|

   F                          Dm                           C         CMaj7  
E|--------------------------|---------------------------|------|----------|
B|-15---13------------------|-15/17-15-13----------10---|--8~ -|-8b9-8~ ~ |
G|---14---14-12-14-10-12-14-|------------14-12-10-12----|------|----------|
D|--------------------------|---------------------------|------|----------|
A|--------------------------|---------------------------|------|----------|
E|--------------------------|---------------------------|------|----------|


[Chorus]F           Dm              C               CMaj7
E|--5-5---5-5-5--|--1-1---1-1-1--|--0-0---0-0-0--|--0-0---0-0-0----|
B|--6-6---6-6-6--|--3-3---3-3-3--|--1-1—--1-1-1--|--1-1---1-1-1----|
G|--5-5---5-5-5--|--2-2---2-2-2--|--0-0---0-0-0--|--0-0---0-0-0----|
D|---------------|---------------|--2-2---2-2-2--|--2-2---2-2-2----|
A|---------------|---------------|--3-3---3-3-3--|--3-3---3-3-3----|
E|---------------|---------------|---------------|-----------------| 



    F               Dm              C               CMaj7
E|--5-5---5-5-5--|--1-1---1-1-1--|--0-0---0-0-0--|--0-0---0-0-0----|
B|--6-6---6-6-6--|--3-3---3-3-3--|--1-1—--1-1-1--|--1-1---1-1-1----|
G|--5-5---5-5-5--|--2-2---2-2-2--|--0-0---0-0-0--|--0-0---0-0-0----|
D|---------------|---------------|--2-2---2-2-2--|--2-2---2-2-2----|
A|---------------|---------------|--3-3---3-3-3--|--3-3---3-3-3----|
E|---------------|---------------|---------------|-----------------| 

 
[Verse]F                          Dm        C              CMaj7 (faster)
E|-----------------------------------|--------------------|-----------------|
B|-----------------------------------|--------------------|-----------------|
G|-10\9/10-10\9/10-10\9/-10-12-10----|--------------------|-----------------|
D|-------------------------------12--|-12/14-12-10-12-10--|12/14-12-10-12-10|
A|-----------------------------------|--------------------|-----------------|
E|-----------------------------------|--------------------|-----------------|

[Pre-Chorus]
   F                    Dm                        C        CMaj7
E|-8--8---------------|-8—8-------------------|---------|-------------|
B|--10-10-8-10-6-6-10-|--10-10-8-10-6-8/10-10-|--10p8---|--10-10p8----|
G|--------------------|-----------------------|---------|-------------|
D|--------------------|-----------------------|---------|-------------|
A|--------------------|-----------------------|---------|-------------|
E|--------------------|-----------------------|---------|-------------|

   F                         Dm                           C      CMaj7
E|----------------------------|-------------------------|------|----------|
B|-13-10-13-10-8-10-6-8/10-10-|-15-13-15-13----------10-|-12~--|-12br14---|
G|----------------------------|------------12-14-10-12—-|------|-------13-|
D|----------------------------|-------------------------|------|----------|
A|----------------------------|-------------------------|------|----------|
E|----------------------------|-------------------------|------|----------|

[Chorus]
    F            Dm           C            CMaj7 (Tremolo)
E|--5~N-------|--1~N-------|--0~N-------|--0~N---------|
B|--6~N-------|--3~N-------|--1~N—------|--1~N---------|
G|--5~N-------|--2~N-------|--0~N-------|--0~N---------|
D|------------|------------|--2~N-------|--2~N---------|
A|------------|------------|--3~N-------|--3~N---------|
E|------------|------------|------------|--------------|
    F            Dm           C            CMaj7 (Tremolo)
E|--5~N-------|--1~N-------|--0~N-------|--0~N---------|
B|--6~N-------|--3~N-------|--1~N—------|--1~N---------|
G|--5~N-------|--2~N-------|--0~N-------|--0~N---------|
D|------------|------------|--2~N-------|--2~N---------|
A|------------|------------|--3~N-------|--3~N---------|
E|------------|------------|------------|--------------| 

[Pre-Chorus]
   F                    Dm                     C       CMaj7
E|-8--8---------------|-8—8----------------|--------|-------------|
B|--10-10-8-8-8-8-10--|--10-10-6-6-6-6-10--|---8----|--8bdr9---9--|
G|--------------------|--------------------|---9----|--9bdr10--8--|
D|--------------------|--------------------|--------|-------------|
A|--------------------|--------------------|--------|-------------|
E|--------------------|--------------------|--------|-------------|


   F                       Dm                         C      CMaj7  
E|-----------------------|-------------------------|------|--0-------|
B|-13---13---13----------|-17-15-17-15-13-15-13----|------|--0-------|
G|---14---14---14-12-14--|---------------------14--|--12--|--12------|
D|-----------------------|-------------------------|--14--|--14------|
A|-----------------------|-------------------------|------|----------|
E|-----------------------|-------------------------|------|----------|

[Bridge]
   F                  Dm                     C         A#
E|---------12-------|--—------------------|----------|-------------|
B|-----------15-13--|---------15b17-15-13-|----------|-------------|
G|-12-14-12---------|-12-14-12------------|-12-14-12-|-12-14-12-10-|
D|------------------|---------------------|----------|-------------|
A|------------------|---------------------|----------|-------------|
E|------------------|---------------------|----------|-------------|


   F                  Dm                  C          A#
E|---------13-------|--—------12--------|----------|-------------|
B|-----------15-13--|-----------15-13---|----------|-------------|
G|-12-14-12---------|-12-14-12----------|-12-14-12-|-12-14-12-10-|
D|------------------|-------------------|----------|-------------|
A|------------------|-------------------|----------|-------------|
E|------------------|-------------------|----------|-------------|

        F   x16     Dm   x16     C    x24     
E|-----------||-----------||-----------||
B|-----------||-----------||-----------||
G|-----------||-----------||-----------||
D|-----3-----||-----7-----||-----5-----||
A|-----3-----||-----5-----||-----3-----||
E|-----1-----||-----------||-----------||

[Ending]

    F                      Dm                      C        A#
E|--20-17~-|--17-20-20-17-20-17~--|--17-20-20-17-20-17~--|--15~--|
B|---------|----------------------|----------------------|-------|
G|---------|----------------------|----------------------|-------|
D|---------|----------------------|----------------------|-------|
A|---------|----------------------|----------------------|-------|
E|---------|----------------------|----------------------|-------|


                        F                             Dm              
E|-17-18-18-18-18-18-18-17-|-17-18-18-18-18-18br20-18-17~-|
B|-------------------------|------------------------------|
G|-------------------------|------------------------------|
D|-------------------------|------------------------------|
A|-------------------------|------------------------------|
E|-------------------------|------------------------------|


                         C       A#                        
E|-17-18-18-18-18-18br20-17~-|---15~--|
B|---------------------------|--------|
G|---------------------------|--------|
D|---------------------------|--------|
A|---------------------------|--------|
E|---------------------------|--------|


       A#   X16     F                        
E|-----------||-----1-----|
B|-----------||-----1-----|
G|-----------||-----2-----|
D|-----5-----||-----3-----|
A|-----5-----||-----3-----|
E|-----6-----||-----1-----|

 

************************************

| br  Bend release
| /   Slide up
| b   Bend
| \   Slide down
| p   Pull-off
| ~   Vibrato
 

************************************

            
            
Suggest correction
Creating personal tab
Creating personal tab
You can edit any tab online and save it as your Personal.

You can edit, replace or remove any tab part or add personal notes – all changes will be seen only by you.

Personal tabs can be accessed anytime from any device, even offline.
Learn more »
Give kudos to tab author, rate the tab!
1 2 3 4 5
comments
print report bad tab
guest
You may want to rate the tab now too:
select rating
Wanna post a correction for this tab? Suggest correction