Oops, an error
Loading. Please wait.

Black Creme tab

by Harvard
406 views 1 this week
no commentswrite comment
1 2 3 4 5
2 more votes to show rating
add to favorites
×
Save as Personal and add changes to this tab that will be seen only by you. Learn more ›
×
You can save this tab as Personal to edit and correct it or add notes. All changes will be seen only by you. Learn more »
launch autoscroll
font size
0
reset
how to read this tab
guitar tuner
edit
Autoscroll
slow
fast
+/-
esc
set tempo
stop
Band: Harvard / HRVRD
Album: From the Bird's Cage
Song: Black Creme

Check out the album! https://hrvrd.bandcamp.com/album/from-the-birds-cage

Capo on the 3rd fret

[Verse]
When the world starts to change
Life rearranged
This is bigger than you
This is better
All that you give
Continues to live
This is bigger than you
This is better
I'll be the silent
Calm loving eyes
This is bigger than you
This is better
It was today
The strangest of days
This is bigger than you

E|----------------------|
B|----------------------|
G|----------------------|   (4x)
D|-------------5----4---|
A|---4----7----7----5---|
E|---5----8-------------|

[Chorus]
This is better
E|--------------------------------------|
B|---5----5-------3-----------8---------|
G|-------------------0-----------0------|
D|----------------------0-----------0---|
A|--------------------------------------|
E|---5------------3-----------8---------|

With you

E|----------------------------|
B|---0--------------0---------|
G|---------------2-----2------|
D|----------------------------|
A|----------------------------|
E|---0-----------1------------|

Better with you

E|----------------------------------------|
B|---5--------5-----3-----------8---------|
G|------0--------------0-----------0------|
D|---------0--------------0-----------0---|
A|----------------------------------------|
E|---5--------------3-----------8---------|

So much better

E|---------------------0------|
B|---0--------------0---------|
G|------0--------2------------|
D|---------0------------------|
A|----------------------------|
E|---0-----------1------------|

[Verse]
The smile, the wave
The dirt above the grave
This is bigger than you
This is better
Was a harmless desire
Arousing the fire?
This is bigger than you
This is better
And I don't know why
I continue to hide
This is bigger than you
This is better
All that you give
Continues to live
This is bigger than you

E|----------------------|
B|----------------------|
G|----------------------|   (4x)
D|-------------5----4---|
A|---4----7----7----5---|
E|---5----8-------------|

[Chorus]
This is better

E|---------------|
B|---------------|
G|---------------|   
D|---------------|
A|---4----7------|
E|---5----8------|

Better

E|--------------------|
B|--------------------|
G|--------------------|
D|---5----4---5---4---|
A|---7----5-----------|
E|--------------------|

With you

E|----------------------------|
B|----------------------------|
G|----------------------------|
D|---------0------------0-----|
A|------4------------7--------|
E|---5------------8-----------|

So much better

E|-------------|
B|-------------|
G|-------------|
D|---------0---|
A|------2------|
E|---3---------|

With you

E|-------------|
B|-------------|
G|-------------|
D|---------0---|
A|------2------|
E|---2---------|

[Last chord]
E|----0------|
B|----0------|
G|----4------|
D|----5------|
A|----7------|
E|----0------|

            
            
Suggest correction
Creating personal tab
Creating personal tab
You can edit any tab online and save it as your Personal.

You can edit, replace or remove any tab part or add personal notes – all changes will be seen only by you.

Personal tabs can be accessed anytime from any device, even offline.
Learn more »
Give kudos to tab author, rate the tab!
1 2 3 4 5
comments
print report bad tab
guest
You may want to rate the tab now too:
select rating
Wanna post a correction for this tab? Suggest correction