Oops, an error
Loading. Please wait.

68 tab

version 1
version 1

Whole song

Interactive

9,088 views 1 this week
5 commentsread comments
1 2 3 4 5
x 3
add to favorites
×
Save as Personal and add changes to this tab that will be seen only by you. Learn more ›
×
You can save this tab as Personal to edit and correct it or add notes. All changes will be seen only by you. Learn more »
launch autoscroll
font size
0
reset
how to read this tab
guitar tuner
edit
Autoscroll
slow
fast
+/-
esc
set tempo
stop
yess first one to tab this song!!!
its one hundred percent.

song: 68
artist: haste the day
album: dreamer

VERSE:
guitar 1
D|-----------------------------------------------------------------------------|
A|-----------------------------------------------------------------------------|
F|-----------------------------------------------------------------------------|
C|-7-----7-----5-----5-----2-----3-----2-----3---------------------------------|
G|-----------------------------------------------------------------------------|
C|---0-0---0-0---0-0---0-0---0-0---0-0---0-0---0-0-----------------------------| x2
pm   . .   . .   . .   . .   . .   . .   . .   . .

guitar 2
D|-----------------------------------------------------------------------------|
A|-----------------------------------------------------------------------------|
F|-----------------------------------------------------------------------------|
C|-----------------------------------------------------------------------------|
G|-8-----8-----7-----7-----4-----5-----4-----5---------------------------------|
C|---0-0---0-0---0-0---0-0---0-0---0-0---0-0-----------------------------------| x2
pm   . .   . .   . .   . .   . .   . .   . .

then both guitars
D|-----------------------------------------------------------------------------|
A|-----------------------------------------------------------------------------|
F|-----------------------------------------------------------------------------|
C|-----------------------------------------------------------------------------|
G|-------5-5-5-------5-5-5-0-0-0-8-8-8-0-0-0-7-7-7-----------------------------|
C|-3-3-3-------3-3-3-----------------------------------------------------------|

guitar 1
D|-----------------------------------------------------------------------------|
A|-----------------------------------------------------------------------------|
F|-----------------------------------------------------------------------------|
C|-7-----7-----5-----5-----2-----3-----2-----3---------------------------------|
G|-----------------------------------------------------------------------------|
C|---0-0---0-0---0-0---0-0---0-0---0-0---0-0---0-0-----------------------------| x2
pm   . .   . .   . .   . .   . .   . .   . .   . .

guitar 2
D|-----------------------------------------------------------------------------|
A|-----------------------------------------------------------------------------|
F|-----------------------------------------------------------------------------|
C|-----------------------------------------------------------------------------|
G|-8-----8-----7-----7-----4-----5-----4-----5---------------------------------|
C|---0-0---0-0---0-0---0-0---0-0---0-0---0-0-----------------------------------| x1
pm   . .   . .   . .   . .   . .   . .   . .

D|-------------------------------------------------------------------------------|
A|-------------------------------------------------------------------------------|
F|-------------------------------------------------------------------------------|
C|-10-----10-----8-----8-----6-----7-----6-----7---------------------------------|
G|-------------------------------------------------------------------------------|
C|----0-0----0-0---0-0---0-0---0-0---0-0---0-0---0-0-----------------------------| x1
pm    . .    . .   . .   . .   . .   . .   . .   . .

both guitars again
D|-----------------------------------------------------------------------------|
A|-----------------------------------------------------------------------------|
F|-----------------------------------------------------------------------------|
C|-----------------------------------------------------------------------------|
G|-------5-5-5-------5-5-5-0-0-0-8-8-8-0-0-0-7-7-7-----------------------------|
C|-3-3-3-------3-3-3-----------------------------------------------------------|

CHORUS:
both guitars
D|-----------------------------------------------------------------------------|
A|-----------------------------------------------------------------------------|
F|-----------------------------------------------------------------------------|
C|-8---------------------------------------------------------------------------|
G|-8-x24-----------------------------------------------------------------------|
C|-8-------0-0-0-0-0-0-2-2-2-2-2-2-3-3-3-3-3-3-7-7-7-7-7-7---------------------|

D|-----------------------------------------------------------------------------|
A|-----------------------------------------------------------------------------|
F|-----------------------------------------------------------------------------|
C|-8---------------------------------------------------------------------------|
G|-8-x24-----------------------------------------------------------------------|
C|-8-------0-0-0-0-0-0-2-2-2-2-2-2-3-3-3-3-3-3-10-10-10-10-10-10---------------|

D|-----------------------------------------------------------------------------|
A|-----------------------------------------------------------------------------|
F|-----------------------------------------------------------------------------|
C|-8-------7~------------------------------------------------------------------|
G|-8-x16---7~------------------------------------------------------------------|
C|-8-------7~------------------------------------------------------------------|

VERSE again
ends like this
D|-----------------------------------------------------------------------------|
A|-----------------------------------------------------------------------------|
F|-----------------------------------------------------------------------------|
C|-----------------------------------------------------------------------------|
G|-------5-5-5-------5-5-5-0-0-0-0-0-0-0-0-0-0---------------------------------|
C|-3-3-3-------3-3-3-----------------------------------------------------------|

BREAKDOWN 1:
D|-----------------------------------------------------------------------------|
A|-----------------------------------------------------------------------------|
F|-----------------------------------------------------------------------------|
C|-----------------------------------------------------------------------------|
G|-000-0-0-0-0-000-0-0-0-0-000-0-0-0-0-000-0-0-0-0-----------------------------|
C|-000-0-0-0-0-000-0-0-0-0-000-0-0-0-0-000-0-0-0-0-----------------------------| x5
pm ... . . . . ... . . . . ... . . . . ... . . . .

after 2 times lead guitar goes
D|-----------------------------------------------------------------------------|
A|-----------------------------------------------------------------------------|
F|------------------------------------6~---------------------------------------|
C|----7~----6~--------------7~----6~-------------------------------------------|
G|--------------7~----------8~----7~--4~---<
                

            
            
Suggest correction
Creating personal tab
Creating personal tab
You can edit any tab online and save it as your Personal.

You can edit, replace or remove any tab part or add personal notes – all changes will be seen only by you.

Personal tabs can be accessed anytime from any device, even offline.
Learn more »
Give kudos to tab author, rate the tab!
1 2 3 4 5
comments
print report bad tab
5 comments total. Showing first comments.
0 reply
wake behind you 326 Oct 16, 2008 02:14 PM

played through, sounds totally correct

well-done tab

don't stop submitting, UG needs more decent tabbers.

+2 reply
theFallofLirby 480 Mar 04, 2009 07:54 PM

i agreeee nice tab, but theres only one thing wrong just listen to the part after the breakdown. It goes like this:

D:-------------------------------------------------------------:
A:-------------------------------------------------------------:
F:-------------------------------------------------------------:
C:----------------------(3)---------------------------(3)------:
G:-0-0-00-0-0-00-0-0-00-000-0000-8-8-88-8-8-88-8-8-88-888-8888-:
C:-0-0-00-0-0-00-0-0-00-000-0000-8-8-88-8-8-88-8-8-88-888-8888-:
. . .. . . .. . . .. ... .... . . .. . . .. . . .. ... ....

D:-------------------------------------------------------------:
A:-------------------------------------------------------------:
F:-------------------------------------------------------------:
C:-(3)------------(3)------(3)---------------------------------:
G:-777-7777777777-777-7777-777-7777-0-0-00-0-0-00-0-0-00-0-0-0-:
C:-777-7777777777-777-7777-777-7777-0-0-00-0-0-00-0-0-00-0-0-0-:
... .......... ... .... ... .... . . .. . . .. . . .. . . .

D:-------------------------------------------------------------:
A:-------------------------------------------------------------:
F:-------------------------------------------------------------:
C:----------------------(3)---------------------------(3)------:
G:-0-0-00-0-0-00-0-0-00-000-0000-8-8-88-8-8-88-8-8-88-888-8888-:
C:-0-0-00-0-0-00-0-0-00-000-0000-8-8-88-8-8-88-8-8-88-888-8888-:
. . .. . . .. . . .. ... .... . . .. . . .. . . .. ... ....

D:-----------------------------------------------------------:
A:-----------------------------------------------------------:
F:-----------------------------------------------------------:
C:----------------------(3)----------------------------------:
G:-7-7-77-7-7-77-7-7-77-777-7777-0-0-00-0-0-00-0-0-00-0-0-0--:
C:-7-7-77-7-7-77-7-7-77-777-7777-0-0-00-0-0-00-0-0-00-0-0-0--:
. . .. . . .. . . .. ... .... . . .. . . .. . . .. . . .

The (3)'s just indicate a triplet.

0 reply
techdemonhunter 61 Mar 05, 2009 08:30 AM

good tab dude, i love this song

guest
You may want to rate the tab now too:
select rating
Wanna post a correction for this tab? Suggest correction