Oops, an error
Loading. Please wait.

Mad Man tab

version 3
version 3

Whole song

Interactive

2,291 views 1 this week
no commentswrite comment
1 2 3 4 5
1 last vote to show rating
add to favorites
×
Save as Personal and add changes to this tab that will be seen only by you. Learn more ›
×
You can save this tab as Personal to edit and correct it or add notes. All changes will be seen only by you. Learn more »
launch autoscroll
font size
0
reset
how to read this tab
guitar tuner
edit
Autoscroll
slow
fast
+/-
esc
set tempo
stop
Mad Man
Haste the Day
Dreamer
2008
Riff A x2
D--------------------------------------------------------------------------|
A--------------------------------------------------------------------------|
F------------------------------------------------------9-9-9-9-------------|
C----------10---9-----------7------------------9---7---9-9-9-9-------------|
G-8----7-------------7h8h10---10-8-7--8----7-----------7-7-7-7-------------|
C---00---0----0---00--------------------00---0---0-------------------------|

Riff B x2
D--------------------------------------------------------------------------|
A--------------------------------------------------------------------------|
F--------------------------------------------------------------------------|
C--------------------------------------------------------------------------|
G-1--1-1-1--1-1-1-1--1-1-0--0-0-0------------------------------------------|
C—-00-0-0-00-0-0-0-00-0-0-00-0-0-------------------------------------------|

Then Repeat Riff A x2 and Riff B x2

Chorus (those are 10s and 11s)

The chorus uses these two licks repeated multiple times each
It switches from the first to the second on the words “Given” “Floor” “Beauty” “this” 
should be able to figure out where that is.

The first 2 9s are played only on the first time through
D---------------------------------------------------------------------------|
A—99----77-99-1010---------------77-1010-1111-------------------------------|
F----77----------------------77---------------------------------------------|
C---------------------------------------------------------------------------|
G---------------------------------------------------------------------------|
C---------------------------------------------------------------------------|

Verse 2
D--------------------------------------------------------------------------|
A--------------------------------------------------------------------------|
F----------5----4----------------------------------4-2---------------------|
C-3----2---5----4--------------------------3---2---4-2--2------------------|
G-3----2---3----2--------------------------3---2---2-0--2------------------|
C-3-00-2-0----0---000000000000000000000000-3-0-2-0------2------------------|

Then go back to Riff B x2

Chorus

Bridge is just the palm-muted open C chord. You can figure out the strumming its easy.

Play chorus until the end

            
            
Suggest correction
Creating personal tab
Creating personal tab
You can edit any tab online and save it as your Personal.

You can edit, replace or remove any tab part or add personal notes – all changes will be seen only by you.

Personal tabs can be accessed anytime from any device, even offline.
Learn more »
Give kudos to tab author, rate the tab!
1 2 3 4 5
comments
print report bad tab
guest
You may want to rate the tab now too:
select rating
Wanna post a correction for this tab? Suggest correction