Oops, an error
Loading. Please wait.

When Everything Falls tab

version 1
version 1

Whole song

Interactive

7,410 views 1 this week
4 commentsread comments
1 2 3 4 5
2 more votes to show rating
add to favorites
×
Save as Personal and add changes to this tab that will be seen only by you. Learn more ›
×
You can save this tab as Personal to edit and correct it or add notes. All changes will be seen only by you. Learn more »
launch autoscroll
font size
0
reset
how to read this tab
guitar tuner
backing track
0:00
0:00
edit
Autoscroll
slow
fast
+/-
esc
set tempo
stop
Artist - Haste The Day
Song - When Everything Falls
Album - When Everything Falls



     H        S S S S S S S S    E  S S S S E  S S S S S S S S  
D||---------------------------|--------------------------------|
A||---------------------------|--------------------------------|
F||---------------------------|--------------------------------|
C||-------------------------0-|--L---------------------------0-|
G||-----------0-0-0-0-0-0-0-0-|--L--0-0-0-0----0-0-0-0-0-0-0-0-|
C||-----------0-0-0-0-0-0-0-0-|--L--0-0-0-0----0-0-0-0-0-0-0-0-|


  E  S S S S E  S S S S S S E     E  S S S S E  S S S S S S S S  
-------------------------------|--------------------------------|
-------------------------------|--------------------------------|
-------------------------------|--------------------------------|
--L-------------------------0--|--L---------------------------0-|
--L--0-0-0-0----0---0-0---0-0--|--L--0-0-0-0----0-0-0-0-0-0-0-0-|
--L--0-0-0-0----0---0-0---0-0--|--L--0-0-0-0----0-0-0-0-0-0-0-0-|


  E  S S S S E  S S S S S S E     E  S S S S E  S S S S S S S S  
-------------------------------|--------------------------------|
-------------------------------|--------------------------------|
-------------------------------|--------------------------------|
--L-------------------------0--|--L---------------------------0-|
--L--0-0-0-0----0---0-0---0-0--|--L--0-0-0-0----0-0-0-0-0-0-0-0-|
--L--0-0-0-0----0---0-0---0-0--|--L--0-0-0-0----0-0-0-0-0-0-0-0-|


  E  S S S S E  S S S S S S E     E  S S S S E  S S S S S S S S  
-------------------------------|--------------------------------|
-------------------------------|--------------------------------|
-------------------------------|--------------------------------|
--L-------------------------0--|--L---------------------------0-|
--L--0-0-0-0----0---0-0---0-0--|--L--0-0-0-0----0-0-0-0-0-0-0-0-|
--L--0-0-0-0----0---0-0---0-0--|--L--0-0-0-0----0-0-0-0-0-0-0-0-|


  E  S S S S E  S S S S S S S S      E  S S S S E  S S S S S S S S  
--------------------------------||---------------------------------|
--------------------------------||---------------------------------|
--------------------------------||*--------------------------------|
--L---------------------------0-||*--L---------------------------0-|
--L--0-0-0-0----0-0-0-0-0-0-0-0-||---L--0-0-0-0----0-0-0-0-0-0-0-0-|
--L--0-0-0-0----0-0-0-0-0-0-0-0-||---L--0-0-0-0----0-0-0-0-0-0-0-0-|


  E  S S S S E  S S S S S S E     E  S S S S E  S S S S S S S S  
-------------------------------|--------------------------------|
-------------------------------|--------------------------------|
-------------------------------|--------------------------------|
--L-------------------------0--|--L---------------------------0-|
--L--0-0-0-0----0---0-0---0-0--|--L--0-0-0-0----0-0-0-0-0-0-0-0-|
--L--0-0-0-0----0---0-0---0-0--|--L--0-0-0-0----0-0-0-0-0-0-0-0-|


  E  S S S S E  S S S S S S E       E  S S S S E  S S S S S S S S  
--------------------------------||--------------------------------|
--------------------------------||--------------------------------|
-------------------------------*||--------------------------------|
--L-------------------------0--*||--0---------------------------0-|
--L--0-0-0-0----0---0-0---0-0---||--0--0-0-0-0----0-0-0-0-0-0-0-0-|
--L--0-0-0-0----0---0-0---0-0---||--0--0-0-0-0----0-0-0-0-0-0-0-0-|


  E  S S S S E  S S S S S S S S    E  S S S S E  S S S S S S E   
--------------------------------|-------------------------------|
--------------------------------|-------------------------------|
--------------------------------|-------------------------------|
--L---------------------------0-|--L-------------------------0--|
--L--0-0-0-0----0-0-0-0-0-0-0-0-|--L--0-0-0-0----0---0-0---0-0--|
--L--0-0-0-0----0-0-0-0-0-0-0-0-|--L--0-0-0-0----0---0-0---0-0--|


  E  S S S S E  S S S S S S S S    E  E  E  E  S S E  S S E   
--------------------------------|----------------------------|
--------------------------------|----------------------------|
--------------------------------|----------------------------|
--L---------------------------0-|--L-------------------------|
--L--0-0-0-0----0-0-0-0-0-0-0-0-|--L-------------------------|
--L--0-0-0-0----0-0-0-0-0-0-0-0-|--L--0--0--0--0-0-0--0-0-0--|


  E  E  E  E  S  S  S E.  E     E  E  E  S S S  S  S E.  E   
-----------------------------|------------------------------|
-----------------------------|------------------------------|
-----------------------------|------------------------------|
--------------------------8--|--L--8------------------------|
--------------7h-8p-7-5---8--|--L--8------------------------|
--0--0--0--0--------------8--|--L--8--8--8-8-7h-8p-7-3---5--|


  E  E  E  S S S  S  S E.  E     E  E  E  E  S S E  S S E   
------------------------------|----------------------------|
------------------------------|----------------------------|
------------------------------|----------------------------|
---------------------------0--|--L-------------------------|
-----8---------------------0--|--L-------------------------|
--L-----5--5-5-5h-7p-5-3---0--|--L--0--0--0--0-0-0--0-0-0--|


  E  E  E  E  S  S  S E.  E     Q    Q    Q    Q        Q     Q     Q     Q     
-----------------------------|----------------------|--------------------------|
-----------------------------|----------------------|--------------------------|
-----------------------------|----------------------|--------------------------|
--------------------------8--|--L----8----8----8----|--10----10----10----10----|
--------------7h-8p-7-5---8--|--L----8----8----8----|--10----10----10----10----|
--0--0--0--0--------------8--|--L----8----8----8----|--10----10----10----10----|


  E  E  E  E  S S E  S S E     E  E  E  E  S  S  S E.  E   
----------------------------|-----------------------------|
----------------------------|-----------------------------|
----------------------------|-----------------------------|
--L-------------------------|--------------------------8--|
--L-------------------------|--------------7h-8p-7-5---8--|
--L--0--0--0--0-0-0--0-0-0--|--0--0--0--0--------------8--|


  E  E  E  S S S  S  S E.  E     E  E  E  S S S  S  S E.  E   
------------------------------|------------------------------|
------------------------------|------------------------------|
------------------------------|------------------------------|
--L--8------------------------|---------------------------0--|
--L--8------------------------|-----8---------------------0--|
--L--8--8--8-8-7h-8p-7-3---5--|--L-----5--5-5-5h-7p-5-3---0--|


  E  E  E  E  E  S S E  E     S S E  E  E  S  S  S E.  E   
---------------------------|------------------------------|
---------------------------|------------------------------|
---------------------------|------------------------------|
--L------------------------|---------------------------8--|
--L------------------------|---------------7h-8p-7-5---8--|
--L--0--0--0--0--0-0-0--0--|--0-0-0--0--0--------------8--|


  Q     Q    Q     Q        Q     Q     Q    Q       E  E  E  E  S S E  S S E   
------------------------|-------------------------|----------------------------|
------------------------|-------------------------|----------------------------|
-------10----9----10----|--------12----10----9----|----------------------------|
--L---------------------|--10---------------------|--0-------------------------|
--L-----8----7-----8----|--10----10-----8----7----|--0-------------------------|
--L---------------------|--10---------------------|--0--0--0--0--0-0-0--0-0-0--|


  E  E  E  E  S  S  S E.  E     E  E  E  S S S  S  S E.  E   
-----------------------------|------------------------------|
-----------------------------|------------------------------|
-----------------------------|------------------------------|
--------------------------8--|--L--8------------------------|
--------------7h-8p-7-5---8--|--L--8------------------------|
--0--0--0--0--------------8--|--L--8--8--8-8-7h-8p-7-3---5--|


  E  E  E  S S S  S  S E.  E     E  E  E  E  E  S S E  E   
------------------------------|---------------------------|
------------------------------|---------------------------|
------------------------------|---------------------------|
---------------------------0--|--L------------------------|
-----8---------------------0--|--L------------------------|
--L-----5--5-5-5h-7p-5-3---0--|--L--0--0--0--0--0-0-0--0--|


  S S E  E  E  S  S  S E.  E     Q     Q    Q     Q     
------------------------------|------------------------|
------------------------------|------------------------|
------------------------------|-------10----9----10----|
---------------------------8--|--L---------------------|
---------------7h-8p-7-5---8--|--L-----8----7-----8----|
--0-0-0--0--0--------------8--|--L---------------------|


   Q     Q     Q    E  E       E   E  E  E  E   E  E  E   
--------------------------||-----------------------------|
--------------------------||-----------------------------|
--------12----10----9-----||*----------------------------|
--10----------------------||*-----10--9--------10-----7--|
--10----10-----8----7--0--||---L---8--7--0--0---8--0--5--|
--10-------------------0--||---L---------0--0------0-----|


  E  E  E  E  E   E  E   E     E   Q    Q    Q     E     Q.     H        E   4x
----------------------------|-------------------------|----------------------||
----------------------------|-------------------------|----------------------||
------------------------10--|--L--10----9----9----10--|--L------9-----------*||
--------------9--10---------|-------------------------|---------------------*||
--0--3--2--0--7---8--0---8--|--L---8----7----7-----8--|--L------8--------0---||
--0--3--2--0---------0------|-------------------------|------------------0---||


  E   E  E  E  E   E  E  E     E  E  E  E  E   E  E   E   
----------------------------|----------------------------|
----------------------------|----------------------------|
----------------------------|------------------------10--|
-----10--9--------10-----7--|--------------9--10---------|
--L---8--7--0--0---8--0--5--|--0--3--2--0--7---8--0---8--|
--L---------0--0------0-----|--0--3--2--0---------0------|


  E   Q    Q    Q     E     Q.     H        E       Q    Q    E  E  E  E   
-------------------------|---------------------||-------------------------|
-------------------------|---------------------||-------------------------|
--L--10----9----9----10--|--L------9-----------||*------------------------|
-------------------------|------------------0--||*--L----0----0--0--0--8--|
--L---8----7----7-----8--|--L------8--------0--||---L----0----0--0--0--8--|
-------------------------|------------------0--||---L----0----0--0--0--8--|


  Q    Q    E  E  E  E     Q    Q    E  E  E  E     Q    Q    E  E  E  E   
------------------------|------------------------|------------------------|
------------------------|------------------------|------------------------|
------------------------|------------------------|------------------------|
--L----8----8--8--8--3--|--L----3----3--3--3--5--|--L----5----5--5--5--0--|
--L----8----8--8--8--3--|--L----3----3--3--3--5--|--L----5----5--5--5--0--|
--L----8----8--8--8--3--|--L----3----3--3--3--5--|--L----5----5--5--5--0--|


  Q    Q    E  E  E  E     Q    Q    E  E  E  E     Q    Q    E  E  E  E   
------------------------|------------------------|------------------------|
------------------------|------------------------|------------------------|
------------------------|------------------------|------------------------|
--L----0----0--0--0--8--|--L----8----8--8--8--3--|--L----3----3--3--3--5--|
--L----0----0--0--0--8--|--L----8----8--8--8--3--|--L----3----3--3--3--5--|
--L----0----0--0--0--8--|--L----8----8--8--8--3--|--L----3----3--3--3--5--|


  Q    Q    E  E  E  E       E  E  E  E  S S E  E  S S  
-------------------------||----------------------------|
-------------------------||----------------------------|
------------------------*||----------------------------|
--L----5----5--5--5--0--*||--L-------------------------|
--L----5----5--5--5--0---||--L-------------------------|
--L----5----5--5--5--0---||--L--0--0--0--0-0-0--0--0-0-|


  E  E  E  E  S S S E.  E     E  E  E  S S S S S E.  E   
---------------------------|----------------------------|
---------------------------|----------------------------|
---------------------------|----------------------------|
------------------------8--|--L--8----------------------|
--------------7-8-7-5---8--|--L--8----------------------|
--0--0--0--0------------8--|--L--8--8--8-8-7-8-7-3---5--|


  E  E  E  S S S S S E.  E     E  E  E  E  E  S S E  E   
----------------------------|---------------------------|
----------------------------|---------------------------|
----------------------------|---------------------------|
-------------------------0--|--L------------------------|
-----8-------------------0--|--L------------------------|
--L-----5--5-5-5-7-5-3---0--|--L--0--0--0--0--0-0-0--0--|


  S S E  E  E  S S S E.  E     Q     Q    Q     Q        Q     Q     Q    Q     
----------------------------|------------------------|-------------------------|
----------------------------|------------------------|-------------------------|
----------------------------|-------10----9----10----|--------12----10----9----|
-------------------------8--|--L---------------------|--10---------------------|
---------------7-8-7-5---8--|--L-----8----7-----8----|--10----10-----8----7----|
--0-0-0--0--0------------8--|--L---------------------|--10---------------------|


  E  E  E  E  S S E  E  S S    E  E  E  E  S S S E.  E   
----------------------------|---------------------------|
----------------------------|---------------------------|
----------------------------|---------------------------|
----------------------------|------------------------8--|
----------------------------|--------------7-8-7-5---8--|
-----0--0--0--0-0-0--0--0-0-|--0--0--0--0------------8--|


  E  E  E  S S S S S E.  E     E  E  E  S S S S S E.  E   
----------------------------|----------------------------|
----------------------------|----------------------------|
----------------------------|----------------------------|
--L--8----------------------|-------------------------0--|
--L--8----------------------|-----8-------------------0--|
--L--8--8--8-8-7-8-7-3---5--|--L-----5--5-5-5-7-5-3---0--|


  E  E  E  E  E  S S E  E     S S E  E  E  S S S E.  E   
---------------------------|----------------------------|
---------------------------|----------------------------|
---------------------------|----------------------------|
--L------------------------|-------------------------8--|
--L------------------------|---------------7-8-7-5---8--|
--L--0--0--0--0--0-0-0--0--|--0-0-0--0--0------------8--|


  Q     Q    Q     Q        Q     Q     Q    E  E   
------------------------|--------------------------|
------------------------|--------------------------|
-------10----9----10----|--------12----10----9-----|
--L---------------------|--10----------------------|
--L-----8----7-----8----|--10----10-----8----7--0--|
--L---------------------|--10-------------------0--|


    E   E  E  E  E   E  E  E     E  E  E  E  E   E  E   E   
|-----------------------------|----------------------------|
|-----------------------------|----------------------------|
|*----------------------------|------------------------10--|
|*-----10--9--------10-----7--|--------------9--10---------|
|---L---8--7--0--0---8--0--5--|--0--3--2--0--7---8--0---8--|
|---L---------0--0------0-----|--0--3--2--0---------0------|


  E   Q    Q    Q     E     Q.     H        E   4x  E   E  E  E  E   E  E  E   
-------------------------|----------------------||----------------------------|
-------------------------|----------------------||----------------------------|
--L--10----9----9----10--|--L------9-----------*||----------------------------|
-------------------------|---------------------*||-----10--9--------10-----7--|
--L---8----7----7-----8--|--L------8--------0---||--L---8--7--0--0---8--0--5--|
-------------------------|------------------0---||--L---------0--0------0-----|


  E  E  E  E  E   E  E   E     E   Q    Q    Q     E     Q.     H        E   
----------------------------|-------------------------|---------------------|
----------------------------|-------------------------|---------------------|
------------------------10--|--L--10----9----9----10--|--L------9-----------|
--------------9--10---------|-------------------------|------------------0--|
--0--3--2--0--7---8--0---8--|--L---8----7----7-----8--|--L------8--------0--|
--0--3--2--0---------0------|-------------------------|------------------0--|


    Q    Q    E  E  E  E     Q    Q    E  E  E  E     Q    Q    E  E  E  E   
|-------------------------|------------------------|------------------------|
|-------------------------|------------------------|------------------------|
|*------------------------|------------------------|------------------------|
|*--L----0----0--0--0--8--|--L----8----8--8--8--3--|--L----3----3--3--3--5--|
|---L----0----0--0--0--8--|--L----8----8--8--8--3--|--L----3----3--3--3--5--|
|---L----0----0--0--0--8--|--L----8----8--8--8--3--|--L----3----3--3--3--5--|


  Q    Q    E  E  E  E     Q    Q    E  E  E  E     Q    Q    E  E  E  E   
------------------------|------------------------|------------------------|
------------------------|------------------------|------------------------|
------------------------|------------------------|------------------------|
--L----5----5--5--5--0--|--L----0----0--0--0--8--|--L----8----8--8--8--3--|
--L----5----5--5--5--0--|--L----0----0--0--0--8--|--L----8----8--8--8--3--|
--L----5----5--5--5--0--|--L----0----0--0--0--8--|--L----8----8--8--8--3--|


  Q    Q    E  E  E  E     Q    Q    E  E  E  E     
------------------------|-------------------------||
------------------------|-------------------------||
------------------------|------------------------*||
--L----3----3--3--3--5--|--L----5----5--5--5--0--*||
--L----3----3--3--3--5--|--L----5----5--5--5--0---||
--L----3----3--3--3--5--|--L----5----5--5--5--0---||


  E  S S S S E  S S S S S S S S    E  S S S S E  S S S S S S E   
--------------------------------|-------------------------------|
--------------------------------|-------------------------------|
--------------------------------|-------------------------------|
--L---------------------------0-|--L-------------------------0--|
--L--0-0-0-0----0-0-0-0-0-0-0-0-|--L--0-0-0-0----0---0-0---0-0--|
--L--0-0-0-0----0-0-0-0-0-0-0-0-|--L--0-0-0-0----0---0-0---0-0--|


  E  S S S S E  S S S S S S S S    E  S S S S E  S S S S S S E   
--------------------------------|-------------------------------|
--------------------------------|-------------------------------|
--------------------------------|-------------------------------|
--L---------------------------0-|--L-------------------------0--|
--L--0-0-0-0----0-0-0-0-0-0-0-0-|--L--0-0-0-0----0---0-0---0-0--|
--L--0-0-0-0----0-0-0-0-0-0-0-0-|--L--0-0-0-0----0---0-0---0-0--|


  E  S S S S E  S S S S S S S S    E  S S S S E  S S S S S S E   
--------------------------------|-------------------------------|
--------------------------------|-------------------------------|
--------------------------------|-------------------------------|
--L---------------------------0-|--L-------------------------0--|
--L--0-0-0-0----0-0-0-0-0-0-0-0-|--L--0-0-0-0----0---0-0---0-0--|
--L--0-0-0-0----0-0-0-0-0-0-0-0-|--L--0-0-0-0----0---0-0---0-0--|


  E  S S S S E  S S S S S S S S    E  S S S S E  S S S S S S S S  
--------------------------------|--------------------------------|
--------------------------------|--------------------------------|
--------------------------------|--------------------------------|
--L---------------------------0-|--L---------------------------0-|
--L--0-0-0-0----0-0-0-0-0-0-0-0-|--L--0-0-0-0----0-0-0-0-0-0-0-0-|
--L--0-0-0-0----0-0-0-0-0-0-0-0-|--L--0-0-0-0----0-0-0-0-0-0-0-0-|


  E  E  H.                                                  H.           E  E   
---------------------|-----|-----|-----|-----|-----|-----|---------------------|
---------------------|-----|-----|-----|-----|-----|-----|---------------------|
---------------------|-----|-----|-----|-----|-----|-----|---------------------|
--L------------------|-----|-----|-----|-----|-----|-----|---------------------|
--L------------------|-----|-----|-----|-----|-----|-----|---------------------|
--L------------------|-----|-----|-----|-----|-----|-----|------------------0--|


  E  E  Q    Q.     E     E  E  Q    E  E  E  E     E  E  Q    E  E  E  E   
-----------------------|-------------------------|-------------------------|
-----------------------|-------------------------|-------------------------|
-----------------------|-------------------------|-------------------------|
--------3----2---------|--------3----2--3--------|--------3----2--3-----0--|
-----------------------|-------------------------|-------------------------|
--L--0--------------3--|--L--3----------------3--|--L--3-------------------|


  Q.     Q.     E  E     E  E  Q    Q.     E     E  E  Q    E  E  E  E   
----------------------|-----------------------|-------------------------|
----------------------|-----------------------|-------------------------|
----------------------|-----------------------|-------------------------|
--L------2------3-----|--------3----2---------|--------3----2--3--------|
----------------------|-----------------------|-------------------------|
-------------------0--|--L--0--------------3--|--L--3----------------3--|


  E  E  Q    E  E  E  E     E  E  Q.     E  E  E       Q    Q    E  E  E  E   
-------------------------|------------------------||-------------------------|
-------------------------|------------------------||-------------------------|
-------------------------|------------------------||*------------------------|
--------3----2--3-----5--|--L--5--5------5--3--0--||*--L----0----0--0--0--8--|
-------------------------|------------------------||---L----0----0--0--0--8--|
--L--3-------------------|------------------------||--------0----0--0--0--8--|


  Q    Q    E  E  E  E     Q    Q    E  E  E  E     Q    Q    E  E  E  E   
------------------------|------------------------|------------------------|
------------------------|------------------------|------------------------|
------------------------|------------------------|------------------------|
--L----8----8--8--8--3--|--L----3----3--3--3--5--|--L----5----5--5--5--0--|
--L----8----8--8--8--3--|--L----3----3--3--3--5--|--L----5----5--5--5--0--|
--L----8----8--8--8--3--|--L----3----3--3--3--5--|--L----5----5--5--5--0--|


  Q    Q    E  E  E  E     Q    Q    E  E  E  E     Q    Q    E  E  E  E   
------------------------|------------------------|------------------------|
------------------------|------------------------|------------------------|
------------------------|------------------------|------------------------|
--L----0----0--0--0--8--|--L----8----8--8--8--3--|--L----3----3--3--3--5--|
--L----0----0--0--0--8--|--L----8----8--8--8--3--|--L----3----3--3--3--5--|
--L----0----0--0--0--8--|--L----8----8--8--8--3--|--L----3----3--3--3--5--|


  Q    Q    E  E  E  E   3x  Q    Q    E  E  E  E     W                 
-------------------------||------------------------|-------------------|
-------------------------||------------------------|-------------------|
------------------------*||------------------------|-------------------|
--L----5----5--5--5--0--*||--L----5----5--5--5--3--|--L----------------|
--L----5----5--5--5--0---||--L----5----5--5--5--3--|--L----------------|
--L----5----5--5--5--0---||--L----5----5--5--5--3--|--L----------------|


  W                   W                   W                  
-------------------|-------------------|-------------------||
-------------------|-------------------|-------------------||
-------------------|-------------------|-------------------||
--5----------------|--0----------------|--L----------------||
--5----------------|--0----------------|--L----------------||
--5----------------|--0----------------|--L----------------||




Duration Legend
---------------
W - whole
H - half
Q - quarter
E - 8th
S - 16th
T - 32nd
X - 64th
. - note dotted
|-n-|  - n-tuplets



This is an awesome song by an awesome band!  Check them out at www.hastetheday.com!

            
            
Suggest correction
Creating personal tab
Creating personal tab
You can edit any tab online and save it as your Personal.

You can edit, replace or remove any tab part or add personal notes – all changes will be seen only by you.

Personal tabs can be accessed anytime from any device, even offline.
Learn more »
Give kudos to tab author, rate the tab!
1 2 3 4 5
comments
print report bad tab
4 comments total. Showing first comments.
0 reply
KevP714 119 Dec 01, 2006 03:50 PM

Good, but you didn't put the lead part on the intro.

0 reply
TooLateForRoses 71 Dec 01, 2006 04:28 PM

Hmm...I intended too...I converted it from the Guitar Pro file. I'll try to redo it later to fix it.

0 reply
CowBoyRockStar 31 Jan 25, 2007 12:46 PM

This tab is gay, GAY. :-)

guest
You may want to rate the tab now too:
select rating
Wanna post a correction for this tab? Suggest correction