Oops, an error
Loading. Please wait.
We have an official Destroy Everything tab made by UG professional guitarists. Check out the tab »
×
59,147 views 42 this week
1 commentread comment
1 2 3 4 5
x 5
add to favorites
×
Save as Personal and add changes to this tab that will be seen only by you. Learn more ›
×
You can save this tab as Personal to edit and correct it or add notes. All changes will be seen only by you. Learn more »
launch autoscroll
font size
0
reset
how to read this tab
guitar tuner
backing track
0:00
0:00
edit
Autoscroll
slow
fast
+/-
esc
set tempo
stop
Hatebreed - Destroy Everything

D|-------------------|-------------------|-----------------------|
A|-------------------|-------------------|-----------------------|
F|-------------------|-------------------|-----------------------|
C|--0----------------|--L----------------|-----------------------|
G|--0----------------|--L----------------|-----------------------|
C|--0----------------|--L----------------|--0-0-0----------------|

D|-----------------------|-----------------------|
A|-----------------------|-----------------------|
F|-----------------------|-----------------------|
C|-----------------------|-----------------------|
G|-----------------------|-----------------------|
C|--0-0-0----------------|--0-0-0----------------|

D|----------------------------------|-----------------------|
A|----------------------------------|-----------------------|
F|----------------------------------|-----------------------|
C|----------------------------------|-----------------------|
G|----------4---------4-----5---1-4-|-----------------------|
C|--0-0-0-0---0-0-0-0---0-0---0-----|--0-0-0----------------|

D|-----------------------|-----------------------|
A|-----------------------|-----------------------|
F|-----------------------|-----------------------|
C|-----------------------|-----------------------|
G|-----------------------|-----------------------|
C|--0-0-0----------------|--0-0-0----------------|

D|----------------------------------|-----------------------------|
A|----------------------------------|-----------------------------|
F|----------------------------------|-----------------------------|
C|----------------------------------|-----------------------------|
G|----------4---------4-----5---1-4-|---------0------1----4----3--|
C|--0-0-0-0---0-0-0-0---0-0---0-----|--0-0-0--0--0-0-1--0-4--0-3--|

D|-----------------------------|-----------------------------|
A|-----------------------------|-----------------------------|
F|-----------------------------|-----------------------------|
C|-----------------------------|-----------------------------|
G|---------0------1----4----3--|---------0------1----4----3--|
C|--0-0-0--0--0-0-1--0-4--0-3--|--0-0-0--0--0-0-1--0-4--0-3--|

D|----------------------------------|-----------------------------|
A|----------------------------------|-----------------------------|
F|----------------------------------|-----------------------------|
C|----------------------------------|-----------------------------|
G|----------4---------4-----5---1-4-|---------0------1----4----3--|
C|--0-0-0-0---0-0-0-0---0-0---0-----|--0-0-0--0--0-0-1--0-4--0-3--|

D|-----------------------------|-----------------------------|
A|-----------------------------|-----------------------------|
F|-----------------------------|-----------------------------|
C|-----------------------------|-----------------------------|
G|---------0------1----4----3--|---------0------1----4----3--|
C|--0-0-0--0--0-0-1--0-4--0-3--|--0-0-0--0--0-0-1--0-4--0-3--|

D|----------------------------------|--------------------------|
A|----------------------------------|--------------------------|
F|----------------------------------|--------------------------|
C|----------------------------------|--------------------------|
G|----------4---------4-----5---1-4-|--4---4-3-1---3---3-1-0---|
C|--0-0-0-0---0-0-0-0---0-0---0-----|--4---4-3-1---3---3-1-0---|

D|-------------------------|--------------------------|-------------------------|
A|-------------------------|--------------------------|-------------------------|
F|-------------------------|--------------------------|-------------------------|
C|-------------------------|--------------------------|-------------------------|
G|--L--4-4-4-3---1----0----|--4---4-3-1---3---3-1-0---|--L--4-4-4-3---1----0----|
C|--L--4-4-4-3---1----0----|--4---4-3-1---3---3-1-0---|--L--4-4-4-3---1----0----|

D|--------------------------|-------------------------|--------------------------|
A|--------------------------|-------------------------|--------------------------|
F|--------------------------|-------------------------|--------------------------|
C|--------------------------|-------------------------|--------------------------|
G|--4---4-3-1---3---3-1-0---|--L--4-4-4-3---1----0----|--4---4-3-1---3---3-1-0---|
C|--4---4-3-1---3---3-1-0---|--L--4-4-4-3---1----0----|--4---4-3-1---3---3-1-0---|

D|-------------------------|-------------------|
A|-------------------------|-------------------|
F|-------------------------|-------------------|
C|-------------------------|-------------------|
G|--L--4-4-4-3---1----0----|--0----------------|
C|--L--4-4-4-3---1----0----|--0----------------|

D|----------------------------------|-------------------|
A|----------------------------------|-------------------|
F|----------------------------------|-------------------|
C|----------------------------------|-------------------|
G|----------4---------4-----5---1-4-|--0----------------|
C|--0-0-0-0---0-0-0-0---0-0---0-----|--0----------------|

D|----------------------------------|--------------------------|
A|----------------------------------|--------------------------|
F|----------------------------------|--------------------------|
C|----------------------------------|--------------------------|
G|----------4---------4-----5---1-4-|---------0----------------|
C|--0-0-0-0---0-0-0-0---0-0---0-----|--0-0-0--0--------0-0-0-0-|

D|--------------------------|---------------------------|------------------------|
A|--------------------------|---------------------------|------------------------|
F|--------------------------|---------------------------|------------------------|
C|--------------------------|---------------------------|------------------------|
G|---------6----------------|---------4----3------------|---------1----4----3----|
C|--0-0-0--6--------0-0-0-0-|--0-0-0--4----3----0-0-0-0-|--0-0-0--1----4----3----|

D|--------------------------|--------------------------|
A|--------------------------|--------------------------|
F|--------------------------|--------------------------|
C|--------------------------|--------------------------|
G|---------0----------------|---------6----------------|
C|--0-0-0--0--------0-0-0-0-|--0-0-0--6--------0-0-0-0-|

D|---------------------------|------------------------|
A|---------------------------|------------------------|
F|---------------------------|------------------------|
C|---------------------------|------------------------|
G|---------4----3------------|---------1----4----3----|
C|--0-0-0--4----3----0-0-0-0-|--0-0-0--1----4----3----|

D|-----------------------------|-----------------------------|
A|-----------------------------|-----------------------------|
F|-----------------------------|-----------------------------|
C|-----------------------------|-----------------------------|
G|---------0------1----4----3--|---------0------1----4----3--|
C|--0-0-0--0--0-0-1--0-4--0-3--|--0-0-0--0--0-0-1--0-4--0-3--|

D|-----------------------------|----------------------------------|
A|-----------------------------|----------------------------------|
F|-----------------------------|----------------------------------|
C|-----------------------------|----------------------------------|
G|---------0------1----4----3--|----------4---------4-----5---1-4-|
C|--0-0-0--0--0-0-1--0-4--0-3--|--0-0-0-0---0-0-0-0---0-0---0-----|

D|-----------------------------|-----------------------------|
A|-----------------------------|-----------------------------|
F|-----------------------------|-----------------------------|
C|-----------------------------|-----------------------------|
G|---------0------1----4----3--|---------0------1----4----3--|
C|--0-0-0--0--0-0-1--0-4--0-3--|--0-0-0--0--0-0-1--0-4--0-3--|

D|-----------------------------|----------------------------------|
A|-----------------------------|----------------------------------|
F|-----------------------------|----------------------------------|
C|-----------------------------|----------------------------------|
G|---------0------1----4----3--|----------4---------4-----5---1-4-|
C|--0-0-0--0--0-0-1--0-4--0-3--|--0-0-0-0---0-0-0-0---0-0---0-----|

D|--------------------------|-------------------------|--------------------------|
A|--------------------------|-------------------------|--------------------------|
F|--------------------------|-------------------------|--------------------------|
C|--------------------------|-------------------------|--------------------------|
G|--4---4-3-1---3---3-1-0---|--L--4-4-4-3---1----0----|--4---4-3-1---3---3-1-0---|
C|--4---4-3-1---3---3-1-0---|--L--4-4-4-3---1----0----|--4---4-3-1---3---3-1-0---|

D|-------------------------|--------------------------|-------------------------|
A|-------------------------|--------------------------|-------------------------|
F|-------------------------|--------------------------|-------------------------|
C|-------------------------|--------------------------|-------------------------|
G|--L--4-4-4-3---1----0----|--4---4-3-1---3---3-1-0---|--L--4-4-4-3---1----0----|
C|--L--4-4-4-3---1----0----|--4---4-3-1---3---3-1-0---|--L--4-4-4-3---1----0----|

D|--------------------------|-------------------------|-------------------|
A|--------------------------|-------------------------|-------------------|
F|--------------------------|-------------------------|-------------------|
C|--------------------------|-------------------------|-------------------|
G|--4---4-3-1---3---3-1-0---|--L--4-4-4-3---1----0----|--0----------------|
C|--4---4-3-1---3---3-1-0---|--L--4-4-4-3---1----0----|--0----------------|

D|----------------------------------|-------------------|
A|----------------------------------|-------------------|
F|----------------------------------|-------------------|
C|----------------------------------|-------------------|
G|----------4---------4-----5---1-4-|--0----------------|
C|--0-0-0-0---0-0-0-0---0-0---0-----|--0----------------|

D|----------------------------------|--------------------------|
A|----------------------------------|--------------------------|
F|----------------------------------|--------------------------|
C|----------------------------------|--------------------------|
G|----------4---------4-----5---1-4-|---------0----------------|
C|--0-0-0-0---0-0-0-0---0-0---0-----|--0-0-0--0--------0-0-0-0-|

D|--------------------------|---------------------------|------------------------|
A|--------------------------|---------------------------|------------------------|
F|--------------------------|---------------------------|------------------------|
C|--------------------------|---------------------------|------------------------|
G|---------6----------------|---------4----3------------|---------1----4----3----|
C|--0-0-0--6--------0-0-0-0-|--0-0-0--4----3----0-0-0-0-|--0-0-0--1----4----3----|

D|--------------------------|--------------------------|
A|--------------------------|--------------------------|
F|--------------------------|--------------------------|
C|--------------------------|--------------------------|
G|---------0----------------|---------6----------------|
C|--0-0-0--0--------0-0-0-0-|--0-0-0--6--------0-0-0-0-|

D|---------------------------|------------------------|-----------------------|
A|---------------------------|------------------------|-----------------------|
F|---------------------------|------------------------|-----------------------|
C|---------------------------|------------------------|-----------------------|
G|---------4----3------------|---------1----4----3----|-----------------------|
C|--0-0-0--4----3----0-0-0-0-|--0-0-0--1----4----3----|--0-0-0----------------|

D|-----------------------|-----------------------|
A|-----------------------|-----------------------|
F|-----------------------|-----------------------|
C|-----------------------|-----------------------|
G|-----------------------|-----------------------|
C|--0-0-0----------------|--0-0-0----------------|

D|----------------------------------|-----------------------|
A|----------------------------------|-----------------------|
F|----------------------------------|-----------------------|
C|----------------------------------|-----------------------|
G|----------4---------4-----5---1-4-|-----------------------|
C|--0-0-0-0---0-0-0-0---0-0---0-----|--0-0-0----------------|

D|-----------------------|-----------------------|
A|-----------------------|-----------------------|
F|-----------------------|-----------------------|
C|-----------------------|-----------------------|
G|-----------------------|-----------------------|
C|--0-0-0----------------|--0-0-0----------------|

D|----------------------------------|-----------------------------|
A|----------------------------------|-----------------------------|
F|----------------------------------|-----------------------------|
C|----------------------------------|-----------------------------|
G|----------4---------4-----5---1-4-|---------0------1----4----3--|
C|--0-0-0-0---0-0-0-0---0-0---0-----|--0-0-0--0--0-0-1--0-4--0-3--|

D|-----------------------------|-----------------------------|-------------------|
A|-----------------------------|-----------------------------|-------------------|
F|-----------------------------|-----------------------------|-------------------|
C|-----------------------------|-----------------------------|-------------------|
G|---------0------1----4----3--|---------0------1----4----3--|-------------------|
C|--0-0-0--0--0-0-1--0-4--0-3--|--0-0-0--0--0-0-1--0-4--0-3--|-------------------|

D|-----------------------------|-----------------------------|
A|-----------------------------|-----------------------------|
F|-----------------------------|-----------------------------|
C|-----------------------------|-----------------------------|
G|---------0------1----4----3--|---------0------1----4----3--|
C|--0-0-0--0--0-0-1--0-4--0-3--|--0-0-0--0--0-0-1--0-4--0-3--|

D|-----------------------------|----------------------------------|
A|-----------------------------|----------------------------------|
F|-----------------------------|----------------------------------|
C|-----------------------------|----------------------------------|
G|---------0------1----4----3--|----------4---------4-----5---1-4-|
C|--0-0-0--0--0-0-1--0-4--0-3--|--0-0-0-0---0-0-0-0---0-0---0-----|

D|-----------------------------|-----------------------------|
A|-----------------------------|-----------------------------|
F|-----------------------------|-----------------------------|
C|-----------------------------|-----------------------------|
G|---------0------1----4----3--|---------0------1----4----3--|
C|--0-0-0--0--0-0-1--0-4--0-3--|--0-0-0--0--0-0-1--0-4--0-3--|

D|-----------------------------|----------------------------------|
A|-----------------------------|----------------------------------|
F|-----------------------------|----------------------------------|
C|-----------------------------|----------------------------------|
G|---------0------1----4----3--|----------4---------4-----5---1-4-|
C|--0-0-0--0--0-0-1--0-4--0-3--|--0-0-0-0---0-0-0-0---0-0---0-----|

D|------------------------------|-----------------------------|
A|------------------------------|-----------------------------|
F|------------------------------|-----------------------------|
C|------------------------------|-----------------------------|
G|---------0-------------0------|---------0------1----4----3--|
C|--0-0-0--0--0-0-0-0-0--0--0-0-|--0-0-0--0--0-0-1--0-4--0-3--|

D|------------------------------|-----------------------------|
A|------------------------------|-----------------------------|
F|------------------------------|-----------------------------|
C|------------------------------|-----------------------------|
G|---------0-------------0------|---------0------1----4----3--|
C|--0-0-0--0--0-0-0-0-0--0--0-0-|--0-0-0--0--0-0-1--0-4--0-3--|

D|------------------------------|-----------------------------|
A|------------------------------|-----------------------------|
F|------------------------------|-----------------------------|
C|------------------------------|-----------------------------|
G|---------0-------------0------|---------0------1----4----3--|
C|--0-0-0--0--0-0-0-0-0--0--0-0-|--0-0-0--0--0-0-1--0-4--0-3--|

D|------------------------------|----------------------------------|
A|------------------------------|----------------------------------|
F|------------------------------|----------------------------------|
C|------------------------------|----------------------------------|
G|---------0-------------0------|----------4---------4-----5---1-4-|
C|--0-0-0--0--0-0-0-0-0--0--0-0-|--0-0-0-0---0-0-0-0---0-0---0-----|

D|----------------------------------|----------------------||
A|----------------------------------|----------------------||
F|----------------------------------|----------------------||
C|----------------------------------|----------------------||
G|----4-----5---1-4---4-----5---1-4-|--0-------------------||
C|--0---0-0---0-----0---0-0---0-----|--0-------------------||

Text Tab by KlotziDotCom, based on a GP Tab by "Uncrrupt"

            
            
Suggest correction
Creating personal tab
Creating personal tab
You can edit any tab online and save it as your Personal.

You can edit, replace or remove any tab part or add personal notes – all changes will be seen only by you.

Personal tabs can be accessed anytime from any device, even offline.
Learn more »
comments
print report bad tab
1 comment total.
0 reply
alex123456789alex 10 Oct 25, 2015 10:56 AM


c'est quoi sa lol

guest
You may want to rate the tab now too:
select rating
Wanna post a correction for this tab? Suggest correction