Oops, an error
Loading. Please wait.
We have an official Doomsayer tab made by UG professional guitarists. Check out the tab »
×
491 views 3 this week
1 commentread comment
1 2 3 4 5
2 more votes to show rating
add to favorites
×
Save as Personal and add changes to this tab that will be seen only by you. Learn more ›
×
You can save this tab as Personal to edit and correct it or add notes. All changes will be seen only by you. Learn more »
launch autoscroll
font size
0
reset
how to read this tab
guitar tuner
edit
Autoscroll
slow
fast
+/-
esc
set tempo
stop
----------------------------------------------------------------------------
                             Doomsayer - Hatebreed
----------------------------------------------------------------------------
Tabbed by: lpmoshpt24
Email: lpmoshpit24@linkinpark.com

I doubt its the correct way to play it, but i play it in drop D cuz it sounds the best for me.

| h  hammer-on
| p  pull-off
| .  Mute note

E|------------------------------------------------------|
B|------------------------------------------------------|
G|------------------------------------------------------|
D|------------------------------------------------------| x10
A|-------------5--4--5--7-------------------5--4--5--6--|
D|---00000000---------------------00000000--------------|
     ........                     ........

                    Part 1
|------------------------------------------------------|
|------------------------------------------------------| 
|------------------------------------------------------|
|--------0--------------------------------8--7--6--5---|
|--------0--------------------------------8--7--6--5---|
|000000000-----------------------0000000008--7--6--5---|
 ........                       .........

                                                           x3 both
                                                       
                    Part 2
|------------------------------------------------------| Back to prt.1
|------------------------------------------------------| No pause between 
|------------------------------------------------------| part 1 and 2
|------------0-----------------------------------------|
|------------0-----------------------------------------| 
|---0000000000----------------------0000000000000000000| 
    .........                       ...................


|------------------------------------------------------|
|------------------------------------------------------| 
|------------------------------------------------------|
|--------3-------7-------5-7---------------------------|
|--------3-------7-------5-7---------------------------|
|333333333---77777---55555-7---------------------------|



|-------------------------------------------------------|
|-------------------------------------------------------| 
|-------------------------------------------------------|
|---3---3----3----3----35-------------------------------| x3
|---3---3----3----3----35-------------------------------|
|-0-3-0-3-00-3-00-3-00-35-------------------------------|



|------------------------------------------------------|
|------------------------------------------------------|
|------------------------------------------------------|
|-------------------3---3-----3-----3----5-------------| Back to start
|-------------------3---3-----3-----3----5-------------|
|-----------------0-3-0-3-000-3-000-3-00-5-------------|
                    .   .   ...   ...   ..


|------------------------------------------------------|
|------------------------------------------------------|
|------------------------------------------------------|
|-----0-0-000000000-0-0-00000000-0-0-00000000-0-1-3-2--| x3
|-----0-0-000000000-0-0-00000000-0-0-00000000-0-1-3-2--|
|-----0-0-000000000-0-0-00000000-0-0-00000000-0-1-3-2--|
      . . ......... . . ........ . . ........ . . . .

             

                  End with:

|------------------------------------------------------|
|------------------------------------------------------|
|------------------------------------------------------|
|-----0-0-000000000-0-0-00000000-0-0-00000000-0-1-3-2-0|  No pm on 
|-----0-0-000000000-0-0-00000000-0-0-00000000-0-1-3-2-0|  last note
|-----0-0-000000000-0-0-00000000-0-0-00000000-0-1-3-2-0|
      . . ......... . . ........ . . ........ . . . . 




============================================================================

            
            
Suggest correction
Creating personal tab
Creating personal tab
You can edit any tab online and save it as your Personal.

You can edit, replace or remove any tab part or add personal notes – all changes will be seen only by you.

Personal tabs can be accessed anytime from any device, even offline.
Learn more »
Give kudos to tab author, rate the tab!
1 2 3 4 5
comments
print report bad tab
1 comment total.
0 reply
escalade 346 Jan 28, 2008 05:36 PM

nice try, buddy.

guest
You may want to rate the tab now too:
select rating
Wanna post a correction for this tab? Suggest correction