Oops, an error
Loading. Please wait.
We have an official I Will Be Heard tab made by UG professional guitarists. Check out the tab »
×
6,351 views 3 this week
4 commentsread comments
1 2 3 4 5
x 5
add to favorites
×
Save as Personal and add changes to this tab that will be seen only by you. Learn more ›
×
You can save this tab as Personal to edit and correct it or add notes. All changes will be seen only by you. Learn more »
launch autoscroll
font size
0
reset
guitar tuner
edit
Autoscroll
slow
fast
+/-
esc
set tempo
stop
Hatebreed - I Will Be Heard
Album:Perseverance
Tuning: C G C F
Tabbed By: Dean K. (projectwyze13@hotmail.com)

Intro and Chorus
F---------------------------------------------
C---------------------------------------------
G---------------------------------------------
C--2-2---5-5-5----3-3---2-2-2---3-3-3---------

Verse
F---------------------------------------------------
C---------------------------------------------------
G---------------------------------------------------
C--5---7---5---7---5---2---5---5-5-5--3--2-2-2-2-2--

Outro
F-----------------------------
C-----------------------------
G-----------------------------
C--2--2--2--2--2---2----------

            
            
Suggest correction
Creating personal tab
Creating personal tab
You can edit any tab online and save it as your Personal.

You can edit, replace or remove any tab part or add personal notes – all changes will be seen only by you.

Personal tabs can be accessed anytime from any device, even offline.
Learn more »
comments
print report bad tab
4 comments total. Showing first comments.
0 reply
Sam182 121 Feb 04, 2003 07:00 PM

Good job, not too bad

0 reply
NaPaLmDeAtH 10 Jun 15, 2003 08:00 PM

the intro is pretty much right but after playing it i noticed 1 error,


F---------------------------------------
C---------------------------------------
G---------------------------------------
C--2-2---5-5-6----3-3---2-1-2---3-3-3---

0 reply
payson 10 Aug 06, 2006 10:43 PM

alright

guest
You may want to rate the tab now too:
select rating
Wanna post a correction for this tab? Suggest correction