Oops, an error
Loading. Please wait.
We have an official Perseverance tab made by UG professional guitarists. Check out the tab »
×
2,193 views 1 this week
2 commentsread comments
1 2 3 4 5
x 3
add to favorites
×
Save as Personal and add changes to this tab that will be seen only by you. Learn more ›
×
You can save this tab as Personal to edit and correct it or add notes. All changes will be seen only by you. Learn more »
launch autoscroll
font size
0
reset
how to read this tab
guitar tuner
edit
Autoscroll
slow
fast
+/-
esc
set tempo
stop
Author
intro

   d ---------------------|
   a ---------------------|
   f ---------5-7-8-------|
   c ---------3-5-6-------|
   g 1-0-0-0-0------0-----|
   c 1-0-0-0-0------0-----|
pm     . . . .

verse

     --------------------|
     --------------------|
     --------------------|
     --------------------|
     8/7---0---3-1-0-----|
     8/7---0---3-1-0-----|


Chorus

     --------   -------------------|
     --------   -------------------|
     --------   ---------5-7-8-----|
     --------x6 ---------3-5-6-----|
     1-00----   1-000000-----------|
     1-00----   1-000000-----------|

            
            
Suggest correction
Creating personal tab
Creating personal tab
You can edit any tab online and save it as your Personal.

You can edit, replace or remove any tab part or add personal notes – all changes will be seen only by you.

Personal tabs can be accessed anytime from any device, even offline.
Learn more »
Give kudos to tab author, rate the tab!
1 2 3 4 5
comments
print report bad tab
2 comments total.
0 reply
St.Angarrr 163 Aug 24, 2009 04:29 PM

Bad ass man.AAlmsot perfect except for.
The main verse before the 2nd main is this

E-----------------------------------------
b-----------------------------------------
g-----------------------------------------
d-----------------------------------------
a-8\7--0--0--2-2-1-0----7\6--0--0--2-2-1-0
e-8\7--0--0--2-2-1-0----7\6--0--0--2-2-1-0

And for the new players out there the very intro can be played with two guitars.And you can just play on a single string.Cause i think Hatebreed play this way possibly.

e---------------------- e-----------------------
b---------------------- b-----------------------
g---------------------- g----------------2-3-5--
d---------------------- d-----------------------
a--0-0-0-0-0-0-0--2-3-5 a--0-0-0-0-0-0-0--------
e--0-0-0-0-0-0-0------- Or : e--0-0-0-0-0-0-0--------

0 reply
St.Angarrr 163 Aug 24, 2009 04:31 PM

e-------------------
b-------------------
g-------------2-3-5-
d-------------------
a-0-0-0-0-0-0------- There it is sorry for the typo up there!
e-0-0-0-0-0-0-------

guest
You may want to rate the tab now too:
select rating
Wanna post a correction for this tab? Suggest correction