Oops, an error
Loading. Please wait.

A Quick One Before The Eternal Worm Devours Connecticut tab

version 1
version 1

Whole song

Interactive

3,968 views 36 this week
1 commentread comment
1 2 3 4 5
x 4
add to favorites
×
Save as Personal and add changes to this tab that will be seen only by you. Learn more ›
×
You can save this tab as Personal to edit and correct it or add notes. All changes will be seen only by you. Learn more »
launch autoscroll
font size
0
reset
how to read this tab
guitar tuner
edit
Autoscroll
slow
fast
+/-
esc
set tempo
stop
Author
-------------------------------------------------------------------------------
   A QUICK ONE BEFORE THE ETERNAL WORM DEVOURS CONNECTICUT - Have A Nice Life
-------------------------------------------------------------------------------
Tabbed by:Slinden
E-mail:thewhyer (at) gmail.com

I've found only a few tabs of this song online.  I tried one of them and it broke my 
string trying to get to that tuning.
So, I tabbed it in standard.  Enjoy!

Tuning:Standard

For the (): You can play the open Estring or Bstring 5th fret with your pinky
e|-----------------------------------------(0)-----------|
B|-------2-----------2-----------2---------(5)-2---------|
G|-----2---2-------2---2-------2---2-------------2-------|
D|---4-------4---4-------4---4-------4---4---------4-----|
A|-5-----------5-----------5-----------5-----------------|
E|-------------------------------------------------------|

e|-------------------------------------------------------|
B|-------------------------------------------------------|
G|-------6-----------6-----------6----------7-----7------|
D|-----6---6-------6---6-------6---6------6-----6--------|
A|---7-------7---7-------7---7-------7--7-----7----------|
E|-9-----------9-----------9-----------------------------|

            
            
Suggest correction
Creating personal tab
Creating personal tab
You can edit any tab online and save it as your Personal.

You can edit, replace or remove any tab part or add personal notes – all changes will be seen only by you.

Personal tabs can be accessed anytime from any device, even offline.
Learn more »
comments
print report bad tab
1 comment total.
+1 reply
vomitingself 105 Feb 29, 2016 06:48 AM

|-------------------------------------------------------|
B|-------------------------------------------------------|
G|-------6-----------6-----------6----------7-----7------|
D|-----6---6-------6---6-------6---6------6-----6--------|
A|---7-------7---7-------7---7-------7--8-----8----------|
E|-9-----------9-----------9-----------------------------|

guest
You may want to rate the tab now too:
select rating
Wanna post a correction for this tab? Suggest correction