Oops, an error
Loading. Please wait.

A Quick One Before The Eternal Worm Devours Connecticut tab

version 2
version 2

Whole song

Interactive

860 views 6 this week
2 commentsread comments
1 2 3 4 5
3 more votes to show rating
add to favorites
×
Save as Personal and add changes to this tab that will be seen only by you. Learn more ›
×
You can save this tab as Personal to edit and correct it or add notes. All changes will be seen only by you. Learn more »
launch autoscroll
font size
0
reset
how to read this tab
guitar tuner
edit
Autoscroll
slow
fast
+/-
esc
set tempo
stop
Author
Artist - Have A Nice Life
Album - Deathconsciousness
Song - A Quick One Before The Eternal Worm Devours Connecticut
Tuning - Standard
Capo - 9th fret


E|-------0----[------0-----------0-----------3-----------0-----------0------|
B|-----1---1--[----1---1-------1---1-------1---1-------0---0-------0---0----|
G|---2-------2[--2-------2---2-------2---2-------2---0-------0---0-------0--|
D|-3----------[3-----------3-----------3-----------2-----------2-----------2|
A|------------[-------------------------------------------------------------|
E|------------[-------------------------------------------------------------|

-----0--------1-------1--------0----]
---0---0----0---0---0---0----1---1--]
-0-------0-1------1------1-2-------2]
------------------------------------]
------------------------------------]
------------------------------------]

Lyrics (muffled):
"Sometimes I just, I don't know..." 

            
            
Suggest correction
Creating personal tab
Creating personal tab
You can edit any tab online and save it as your Personal.

You can edit, replace or remove any tab part or add personal notes – all changes will be seen only by you.

Personal tabs can be accessed anytime from any device, even offline.
Learn more »
Give kudos to tab author, rate the tab!
1 2 3 4 5
comments
print report bad tab
2 comments total.
0 reply
Lumberwoods 69 Jan 02, 2014 11:51 PM, edited on January 3 2014, 04:51 am

Should actually go:

E[-------0-----------0-----------0----------3-------------0-----------0------|B[-----1---1-------1---1-------1---1------------1-------0---0-------0---0----|G[---2-------2---2-------2---2-------2---2----2---2---0-------0---0-------0--|D[-3-----------3-----------3-----------3------------2-----------2-----------2|A[---------------------------------------------------------------------------|E[---------------------------------------------------------------------------|-----0---------1----1---]---0---0-----0----0-----]-0-------0-1----1-----2-]------------------------]------------------------]------------------------]

0 reply
Lumberwoods 69 Jan 02, 2014 11:53 PM

Should actually go:

E[-------0-----------0-----------0----------3-------------0-----------0------|
B[-----1---1-------1---1-------1---1------------1-------0---0-------0---0----|
G[---2-------2---2-------2---2-------2---2----2---2---0-------0---0-------0--|
D[-3-----------3-----------3-----------3------------2-----------2-----------2|
A[---------------------------------------------------------------------------|
E[---------------------------------------------------------------------------|

-----0---------1----1---]
---0---0-----0----0-----]
-0-------0-1----1-----2-]
------------------------]
------------------------]
------------------------]

guest
You may want to rate the tab now too:
select rating
Wanna post a correction for this tab? Suggest correction