Oops, an error
Loading. Please wait.

One Thing I Have Left tab

version 6
version 6

Interactive

8,546 views 1 this week
2 commentsread comments
1 2 3 4 5
x 4
add to favorites
×
Save as Personal and add changes to this tab that will be seen only by you. Learn more ›
×
You can save this tab as Personal to edit and correct it or add notes. All changes will be seen only by you. Learn more »
launch autoscroll
font size
0
reset
how to read this tab
guitar tuner
edit
Autoscroll
slow
fast
+/-
esc
set tempo
stop
The One Thing I Have Left – Hawk Nelson

Tuning: Half-step down/drop Db

*=palm mute
\=slide down
/=slide up
~=let ring
b=bend

Verse 1: Guitar 1 & 2
Eb|-------------------------------------------------------------------------------------------|
Bb|-------------------------------------------------------------------------------------------|
Gb|--7-7-7-7--10-10-10-10--5-5-5-5--9-9-9-9----7-7---7-7\5-5/10-10---5-5-----7----------------|
Db|--7-7-7-7--10-10-10-10--5-5-5-5--9-9-9-9----7-7---7-7\5-5/10-10---5-5-----7----------------(4x)
Ab|--5-5-5-5--8--8--8--8---3-3-3-3--7-7-7-7----5-5---5-5\3-3/8--8----3-3-0-3-5----------------|
Db|-------------------------------------------------------------------------------------------|
     * * * *  *  *  *  *   * * * *  * * * *

Pre-chorus: Guitar 1
Eb|-------------------------------------------------------------------------------------------|
Bb|-------------------------------------------------------------------------------------------|
Gb|--3~--------5~-------7~-------5~-------3~-------5~-------7-7---7-7\5-5/10-10---------------|
Db|--3~--------5~-------7~-------5~-------3~-------5~-------7-7---7-7\5-5/10-10---------------|
Ab|--1~--------3~-------5~-------3~-------1~-------3~-------5-5---5-5\3-3/8--8----------------|
Db|-------------------------------------------------------------------------------------------|
Guitar 2
Eb|----1---------3--------5--------3--------1--------3----------------------------------------|
Bb|------3---------5--------7--------5--------3--------5--------------------------------------|
Gb|--------3---------5--------7--------5--------3--------5--7-7---7-7\5-5/10-10---------------|
Db|---------------------------------------------------------7-7---7-7\5-5/10-10---------------|
Ab|---------------------------------------------------------5-5---5-5\3-3/8--8----------------|
Db|-------------------------------------------------------------------------------------------|

Chorus: Guitar 1
Eb|-------------------------------------------------------------------------------------------|
Bb|-------------------------------------------------------------------------------------------|
Gb|--3-3-3-3-3-3-3-3--5-5-5-5-5-5-5-5--7-7-7-7-7-7-7-7--5-5-5-5--5--5-------------------------|
Db|--3-3-3-3-3-3-3-3--5-5-5-5-5-5-5-5--7-7-7-7-7-7-7-7--5-5-5-5--5--5-------------------------|
Ab|--1-1-1-1-1-1-1-1--3-3-3-3-3-3-3-3--5-5-5-5-5-5-5-5--3-3-3-3--3--3-------------------------|
Db|-------------------------------------------------------------------------------------------|

Eb|-------------------------------------------------------------------------------------------|
Bb|-------------------------------------------------------------------------------------------|
Gb|--3-3-3-3-3-3-3-3--5-5-5-5-5-5-5-5---7-7-7---5-5-5---10-10-10---5--5-----------------------|
Db|--3-3-3-3-3-3-3-3--5-5-5-5-5-5-5-5---7-7-7---5-5-5---10-10-10---5--5-----------------------|
Ab|--1-1-1-1-1-1-1-1--3-3-3-3-3-3-3-3---5-5-5---3-3-3---8--8--8----3--3-----------------------|
Db|-------------------------------------------------------------------------------------------|

Eb|-------------------------------------------------------------------------------------------|
Bb|-------------------------------------------------------------------------------------------|
Gb|--3-3-3-3-3-3-3-3--5-5-5-5-5-5-5-5--7-7-7-7-7-7-7-7--5-5-5-5-x-5-x-5-----------------------|
Db|--3-3-3-3-3-3-3-3--5-5-5-5-5-5-5-5--7-7-7-7-7-7-7-7--5-5-5-5-x-5-x-5-----------------------|
Ab|--1-1-1-1-1-1-1-1--3-3-3-3-3-3-3-3--5-5-5-5-5-5-5-5--3-3-3-3-x-3-x-3-----------------------|
Db|-------------------------------------------------------------------------------------------|

Eb|-------------------------------------------------------------------------------------------|
Bb|-------------------------------------------------------------------------------------------|
Gb|--3-3-3-3-3-3-3-3--5-5-5-5-5-5-5-5--7-7---7-7\5-5---10-10---5-5-----7----------------------|
Db|--3-3-3-3-3-3-3-3--5-5-5-5-5-5-5-5--x-x---x-x\x-x---x--x----x-x-----x----------------------|
Ab|--1-1-1-1-1-1-1-1--3-3-3-3-3-3-3-3--5-5---5-5\3-3---8--8----3-3-0-3-5----------------------|
Db|-------------------------------------------------------------------------------------------|


Verse 2: Guitar 1
Eb|-------------------------------------------------------------------------------------------|
Bb|-------------------------------------------------------------------------------------------|
Gb|-7-7---7-7\5-5---10-10---5-5-----7---------------------------------------------------------|
Db|-7-7---7-7\5-5---10-10---5-5-----7---------------------------------------------------------|
Ab|-5-5---5-5\3-3---8--8----3-3-0-3-5---------------------------------------------------------|
Db|-------------------------------------------------------------------------------------------|
Guitar 2
Eb|-------------------------------------------------------------------------------------------|
Bb|-------------------------------------------------------------------------------------------|
Gb|-7-7---7-7\5-5---10-10---5-5-----7---------------------------------------------------------|
Db|-7-7---7-7\5-5---10-10---5-5-----7---------------------------------------------------------|
Ab|-5-5---5-5\3-3---8--8----3-3-0-3-5---------------------------------------------------------|
Db|-------------------------------------------------------------------------------------------|

Guitar 1
Eb|-55----------------------------------------------------------------------------------------|
Bb|-------55----88----5---5-6-----------------------------------------------------------------|
Gb|----77----77----55---5------7-7---7-7\5-5/10-10---5-5-----7--------------------------------|
Db|----------------------------7-7---7-7\5-5/10-10---5-5-----7--------------------------------|
Ab|----------------------------5-5---5-5\3-3/8--8----3-3-0-3-5--------------------------------|
Db|-------------------------------------------------------------------------------------------|
Guitar 2
Eb|-------------------------------------------------------------------------------------------|
Bb|-------------------------------------------------------------------------------------------|
Gb|----------------------------7-7---7-7\5-5/10-10---5-5-----7--------------------------------|
Db|----------------------------7-7---7-7\5-5/10-10---5-5-----7--------------------------------|
Ab|----------------------------5-5---5-5\3-3/8--8----3-3-0-3-5--------------------------------|
Db|-------------------------------------------------------------------------------------------|

Guitar 1
Eb|-5-5---------------------------------------------------------------------------------------|
Bb|---------5--5-------8--8--------5-----5--6-------------------------------------------------|
Gb|-----7-7-------7-7--------5--5------5---------------7-7---7-7\5-5/10-10--5-5-----7---------|
Db|----------------------------------------------------7-7---7-7\5-5/10-10--5-5-----7---------|
Ab|----------------------------------------------------5-5---5-5\3-3/8--8---3-3-0-3-5---------|
Db|-------------------------------------------------------------------------------------------|
Guitar 2
Eb|-10-10-------------------------------------------------------------------------------------|
Bb|-------10-10-13-13-10-10-----------------------10------------------------------------------|
Gb|-------------------------12-12-------12----12-------7-7---7-7\5-5/10-10--5-5-----7---------|
Db|-------------------------------12-12----12----------7-7---7-7\5-5/10-10--5-5-----7---------|
Ab|----------------------------------------------------5-5---5-5\3-3/8--8---3-3-0-3-5---------|
Db|-------------------------------------------------------------------------------------------|

Guitar 1
Eb|--5-5--------------------------------------------------------------------------------------|
Bb|----------5--5-------8--8--------5-----5--6------------------------------------------------|
Gb|------7-7-------7-7--------5--5------5--------------7-7---7-7\5-5/10-10--5-5-----7---------|
Db|----------------------------------------------------7-7---7-7\5-5/10-10--5-5-----7---------|
Ab|----------------------------------------------------5-5---5-5\3-3/8--8---3-3-0-3-5---------|
Db|-------------------------------------------------------------------------------------------|
Guitar 2
Eb|--10-10------------------------------------------------------------------------------------|
Bb|--------10-10-13-13-10-10-----------------------10-----------------------------------------|
Gb|--------------------------12-12-------12----12------7-7---7-7\5-5/10-10--5-5-----7---------|
Db|--------------------------------12-12----12---------7-7---7-7\5-5/10-10--5-5-----7---------|
Ab|----------------------------------------------------5-5---5-5\3-3/8--8---3-3-0-3-5---------|
Db|-------------------------------------------------------------------------------------------|


Pre-chorus: Guitar 1
Eb|-------------------------------------------------------------------------------------------|
Bb|-------------------------------------------------------------------------------------------|
Gb|--3~--------5~-------7~-------5~-------3~-------5~-------7-7---7-7\5-5/10-10---------------|
Db|--3~--------5~-------7~-------5~-------3~-------5~-------7-7---7-7\5-5/10-10---------------|
Ab|--1~--------3~-------5~-------3~-------1~-------3~-------5-5---5-5\3-3/8--8----------------|
Db|-------------------------------------------------------------------------------------------|
Guitar 2
Eb|----1---------3--------5--------3--------1--------3----------------------------------------|
Bb|------3---------5--------7--------5--------3--------5--------------------------------------|
Gb|--------3---------5--------7--------5--------3--------5--7-7---7-7\5-5/10-10---------------|
Db|---------------------------------------------------------7-7---7-7\5-5/10-10---------------|
Ab|---------------------------------------------------------5-5---5-5\3-3/8--8----------------|
Db|-------------------------------------------------------------------------------------------|


Chorus: Guitar 1
Eb|-------------------------------------------------------------------------------------------|
Bb|-------------------------------------------------------------------------------------------|
Gb|--3-3-3-3-3-3-3-3--5-5-5-5-5-5-5-5--7-7-7-7-7-7-7-7--5-5-5-5-x-5-x-5-----------------------|
Db|--3-3-3-3-3-3-3-3--5-5-5-5-5-5-5-5--7-7-7-7-7-7-7-7--5-5-5-5-x-5-x-5-----------------------|
Ab|--1-1-1-1-1-1-1-1--3-3-3-3-3-3-3-3--5-5-5-5-5-5-5-5--3-3-3-3-x-3-x-3-----------------------|
Db|-------------------------------------------------------------------------------------------|

Eb|-------------------------------------------------------------------------------------------|
Bb|-------------------------------------------------------------------------------------------|
Gb|--3-3-3-3-3-3-3-3--5-5-5-5-5-5-5-5--x-7-7-7--x-5-5-5--x-10-10-10--x-5-x-5------------------|
Db|--3-3-3-3-3-3-3-3--5-5-5-5-5-5-5-5--x-7-7-7--x-5-5-5--x-10-10-10--x-5-x-5------------------|
Ab|--1-1-1-1-1-1-1-1--3-3-3-3-3-3-3-3--x-5-5-5--x-3-3-3--x-8--8--8---x-3-x-3------------------|
Db|-------------------------------------------------------------------------------------------|

Eb|-------------------------------------------------------------------------------------------|
Bb|-------------------------------------------------------------------------------------------|
Gb|--3-3-3-3-3-3-3-3--5-5-5-5-5-5-5-5--7-7-7-7-7-7-7-7--5-5-5-5-x-5-x-5-----------------------|
Db|--3-3-3-3-3-3-3-3--5-5-5-5-5-5-5-5--7-7-7-7-7-7-7-7--5-5-5-5-x-5-x-5-----------------------|
Ab|--1-1-1-1-1-1-1-1--3-3-3-3-3-3-3-3--5-5-5-5-5-5-5-5--3-3-3-3-x-3-x-3-----------------------|
Db|-------------------------------------------------------------------------------------------|

Eb|-------------------------------------------------------------------------------------------|
Bb|-------------------------------------------------------------------------------------------|
Gb|--3-3-3-3-3-3-3-3--5-5-5-5-5-5-5-5---------------------------------------------------------|
Db|--3-3-3-3-3-3-3-3--5-5-5-5-5-5-5-5---------------------------------------------------------|
Ab|--1-1-1-1-1-1-1-1--3-3-3-3-3-3-3-3---------------------------------------------------------|
Db|-------------------------------------------------------------------------------------------|


Bridge: Guitar 1
Eb|-------------------------------------------------------------------------------------------|
Bb|-------------------------------------------------------------------------------------------|
Gb|-7--7-7-7-7--7-7-----7--7-7-7-7--7-7-----7--7-7-7-7--7--7-----7--7-7-7-7--7-7--------------|
Db|-----------------8-7-----------------8-7------------------8-7-----------------8-7--8-8-----|
Ab|-----------------------------------------------------------------------------------8-8-----|
Db|-----------------------------------------------------------------------------------8-8-----|

Guitar 1 & 2
Eb|-------------------------------------------------------------------------------------------|
Bb|-------------------------------------------------------------------------------------------|
Gb|-------------------------------------------------------------------------------------------|
Db|--0--0-0-0-0-0--0--6-5---0--0-0-0-0-0--0--6-5---0--0-0-0-0-0--0--6-5----0--0--3--5---3--2--|
Ab|--0--0-0-0-0-0--0--6-5---0--0-0-0-0-0--0--6-5---0--0-0-0-0-0--0--6-5----0--0--3--5---3--2--|
Db|--0--0-0-0-0-0--0--6-5---0--0-0-0-0-0--0--6-5---0--0-0-0-0-0--0--6-5----0--0--3--5---3--2--|

Guitar 1 & 2
Eb|-------------------------------------------------------------------------------------------|
Bb|-------------------------------------------------------------------------------------------|
Gb|-------------------------------------------------------------------------------------------|
Db|--0--0-0-0-0-0--0--6-5---0--0-0-0-0-0--0--6-5---0--0-0-0-0-0--0--6-5----0--0--3--5---3--2--|
Ab|--0--0-0-0-0-0--0--6-5---0--0-0-0-0-0--0--6-5---0--0-0-0-0-0--0--6-5----0--0--3--5---3--2--|
Db|--0--0-0-0-0-0--0--6-5---0--0-0-0-0-0--0--6-5---0--0-0-0-0-0--0--6-5----0--0--3--5---3--2--|

Guitar 1 & 2   ^              ^             ^         ^=guitar 1 or 2 only
Eb|------------6--------------8-------------10------------------------------------------------|
Bb|------------9b-------------11b-----------13b-----------------------------------------------|
Gb|-------------------------------------------------------------------------------------------|
Db|--0--0--0--------0--0--0--------0--0--0---------0--0--3--5--3--2---------------------------|
Ab|--0--0--0--------0--0--0--------0--0--0---------0--0--3--5--3--2---------------------------|
Db|--0--0--0--------0--0--0--------0--0--0---------0--0--3--5--3--2---------------------------|

Guitar 1 & 2      ^ ^  ^               ^ ^ ^              ^ ^ ^  ^=same here
Eb|-------------------------------------------------------------------------------------------|
Bb|---------------9-9------------------9-9----------------9-9---------------------------------|
Gb|-------------------7b-------------------7b-----------------7b------------------------------|
Db|--0--0-0--0-0----------0--0-0--0-0---------0--0-0--0-0-------------------------------------|
Ab|--0--0-0--0-0----------0--0-0--0-0---------0--0-0--0-0-------------------------------------|
Db|--0--0-0--0-0----------0--0-0--0-0---------0--0-0--0-0-------------------------------------|

Guitar 1 & 2
Eb|-------------------------------------------------------------------------------------------|
Bb|-------------------------------------------------------------------------------------------|
Gb|-------------------------------------------------------------------------------------------|
Db|---0--0--3--5---3--2--0--0--3--5---3--2----------------------------------------------------|
Ab|---0--0--3--5---3--2--0--0--3--5---3--2----------------------------------------------------|
Db|---0--0--3--5---3--2--0--0--3--5---3--2----------------------------------------------------|

Guitar 1
Eb|-------------------------------------------------------------------------------------------|
Bb|-------------------------------------------------------------------------------------------|
Gb|--5---------5-5-5-5------------------------------------------------------------------------|
Db|--5---------5-5-5-5---0-0-0-0--0--0--3--5---3--2--0~---------------------------------------|
Ab|--3---------3-3-3-3---0-0-0-0--0--0--3--5---3--2--0~---------------------------------------|
Db|----------------------0-0-0-0--0--0--3--5---3--2--0~---------------------------------------|
Guitar 2
Eb|-------------------------------------------------------------------------------------------|
Bb|-------------------------------------------------------------------------------------------|
Gb|--5---------5-5-5-5------------------------------------------------------------------------|
Db|--5---------5-5-5-5---0-0-0-0--0--0--3--5---3--2-------------------------------------------|
Ab|--3---------3-3-3-3---0-0-0-0--0--0--3--5---3--2-------------------------------------------|
Db|--5-------------------0-0-0-0--0--0--3--5---3--2--12bbbb/----------------------------------|

            
            
Suggest correction
Creating personal tab
Creating personal tab
You can edit any tab online and save it as your Personal.

You can edit, replace or remove any tab part or add personal notes – all changes will be seen only by you.

Personal tabs can be accessed anytime from any device, even offline.
Learn more »
comments
print report bad tab
2 comments total.
+1 reply
England5 114 Nov 14, 2011 04:46 PM

On the bridge its not
Eb|-----------------------
Bb|-----------------------
Gb|-----------------------
Db|--0--0-0-0-0-0--0--6-5-
Ab|--0--0-0-0-0-0--0--6-5-
Db|--0--0-0-0-0-0--0--6-5-
Its
Eb|-----------------------
Bb|-----------------------
Gb|-----------------------
Db|--0--0-0-0-0-0--0--8-7-
Ab|--0--0-0-0-0-0--0--8-7-
Db|--0--0-0-0-0-0--0--8-7-

-1 reply
England5 114 Nov 30, 2011 04:10 PM

On the pre-chorus its not

Eb|----1---------3--------5----
Bb|------3---------5--------7--
Gb|--------3---------5--------7

its
Eb|----1---------3--------5----
Bb|------3---------5--------7--
Gb|--------3---------5--------7

Other than that its one of the best tabs ive seen in a while because most of them are shitty

guest
You may want to rate the tab now too:
select rating
Wanna post a correction for this tab? Suggest correction