Oops, an error
Loading. Please wait.

You Have What I Need intro tab

version 2
version 2

Intro

Whole song

747 views 1 this week
3 commentsread comments
1 2 3 4 5
1 last vote to show rating
add to favorites
×
Save as Personal and add changes to this tab that will be seen only by you. Learn more ›
×
You can save this tab as Personal to edit and correct it or add notes. All changes will be seen only by you. Learn more »
launch autoscroll
font size
0
reset
how to read this tab
guitar tuner
edit
Autoscroll
slow
fast
+/-
esc
set tempo
stop
Difficulty
Tabbed by: lavadranzer
Email: mgoines@hotmail.com

Tuning: Standard

e|---------------------------------------------------------------------------|
B|---------------------------------------------------------------------------|
G|---------------------------------------------------------------------------|
D|---------------------------------------------------------------------------|
A|--4-4-4--12-12-12--7-7-7--9-7-9--------------------------------------------|
E|--2-0-2--9--9--9---5-5-5--7-5-7--------------------------------------------|

e|---------------------------------------------------------------------------|
B|---------------------------------------------------------------------------|
G|---------------------------------------------------------------------------|
D|---------------------------------------------------------------------------|
A|--4-4-4--12-12-12--7-7-7--9-9----------------------------------------------|
E|--2-0-2---9--9-9---5-5-5--7-7----------------------------------------------|

            
            
Suggest correction
Creating personal tab
Creating personal tab
You can edit any tab online and save it as your Personal.

You can edit, replace or remove any tab part or add personal notes – all changes will be seen only by you.

Personal tabs can be accessed anytime from any device, even offline.
Learn more »
Give kudos to tab author, rate the tab!
1 2 3 4 5
comments
print report bad tab
3 comments total.
0 reply
lavadranzer 15 Aug 18, 2008 01:22 PM

Well written! Even if it was me who wrote it will not registered.

0 reply
Taggerung 10 Aug 22, 2008 11:52 AM

I LIKE THE 1st VERSION THIS IS A LITTLE HARDER BUT STILL GOOD

0 reply
lavadranzer 15 Aug 22, 2008 05:59 PM

I actually did it wrong.

I just noticed earlier today.

The 12 is supposed to have 10's under it not 9's.

My mistake, I'm sorry.

12-12-12
10-10-10

not
12
9

guest
Wanna post a correction for this tab? Suggest correction