Oops, an error
Loading. Please wait.

You Have What I Need tab

version 1
version 1

Whole song

3,496 views 1 this week
1 commentread comment
1 2 3 4 5
x 6
add to favorites
×
Save as Personal and add changes to this tab that will be seen only by you. Learn more ›
×
You can save this tab as Personal to edit and correct it or add notes. All changes will be seen only by you. Learn more »
launch autoscroll
font size
0
reset
how to read this tab
guitar tuner
edit
Autoscroll
slow
fast
+/-
esc
set tempo
stop
Author
Difficulty
Intro:
E|-----------------------------------------------|
B|---------333------------------333--------------|
G|---------222-222-4-4-4--------222-222-4-4------|
D|-4-4-4---000-222-4-4-4-4-4-4--000-222-4-4------|
A|-4-4-4-------000-2-0-2-4-4-4------000-2-2------|
E|-2-0-2-----------------2-0-2-------------------|x4


Verse:
Guitar does some picking in background and i can't pick it out by ear:-(
You can just play the intro chords over it though

Chorus:this part is played fast and takes awhile to get used to:
E|-------------------------------------------------------------------------------------------|
B|-------------------------------------------------------------------------------------------|
G|-10101010-11-------------------11--------------------11------------------------------------|
D|-10101010-11--11-9-7--7-9-7-4--11--11--9-7--7-9-6-7--11-11--9-7-9-6-7--7-9-7-4--4444-7777--|
A|-8-8-8-8--9---11-9-7--7-9-7-4--9---11--9-7--7-9-6-7--9---9--9-7-9-6-7--7-9-7-4--4444-7777--|
E|--------------9--7-5--5-7-5-2-------9--7-5--5-7-4-5------9--7-5-7-4-5--5-7-5-2--2222-5555--|

then intro again

then verse

and then 2nd chorus is played the same with intro part after the chorus

then the bridge which is all palm mute:
E|---------------------------|
B|---------------------------|
G|---------------------------|
D|-444-777-999-111111--------|
A|-444-777-999-111111--------|
E|-222-555-777-9-9-9---------|

and then end with another chorus

Enjoy:-) and comment if any mistakes please

            
            
Suggest correction
Creating personal tab
Creating personal tab
You can edit any tab online and save it as your Personal.

You can edit, replace or remove any tab part or add personal notes – all changes will be seen only by you.

Personal tabs can be accessed anytime from any device, even offline.
Learn more »
comments
print report bad tab
1 comment total.
+1 reply
softball1230 280 Apr 06, 2009 07:32 AM

Jonathan Steingard (Hawk Nelson guitarist) has a video on youtube that shows you how to play it the way he does.

http://www.youtube.com/watch?v=o_dC2eCFu9E&feature=channel_page

guest
You may want to rate the tab now too:
select rating
Wanna post a correction for this tab? Suggest correction