Oops, an error
Loading. Please wait.

You Have What I Need tab

version 2
version 2

Whole song

1,809 views 1 this week
1 commentread comment
1 2 3 4 5
x 5
add to favorites
×
Save as Personal and add changes to this tab that will be seen only by you. Learn more ›
×
You can save this tab as Personal to edit and correct it or add notes. All changes will be seen only by you. Learn more »
launch autoscroll
font size
0
reset
how to read this tab
guitar tuner
edit
Autoscroll
slow
fast
+/-
esc
set tempo
stop
Author
This is the first song on the album Hawk Nelson is My Friend. It's pretty easy, the 
is a lot easier than the other tabs show. Enjoy!!!

Key
h| hammer-on
p| pull-off
~| vibrato / let ring
.| palm mute
/| slide down fretboard
\| slide up fretboard
*| harmonic (5th fret)

Intro
e|----------------------------------------------------0~0~-|
B|----------------------------------------------------0~0~-|
G|--------2-2-2---------4-0-4-0---------2-2-2--------------| x2
D|-4-0-4--0-0-0--2-2-2--4-0-4-0--4-0-4--0-0-0--2-2-2-------|
A|-4-0-4---------0-0-0--2-0-2-0--4-0-4---------0-0-0-------|
E|-2-0-2-------------------------2-0-2---------------------|

(Rest of the band comes in)
e|----------------------------------------------------0~0~-|
B|----------------------------------------------------0~0~-|
G|--------2-2-2---------4-0-4-0---------2-2-2--------------| x2
D|-4-0-4--0-0-0--2-2-2--4-0-4-0--4-0-4--0-0-0--2-2-2-------|
A|-4-0-4---------0-0-0--2-0-2-0--4-0-4---------0-0-0-------|
E|-2-0-2-------------------------2-0-2---------------------|

Verse 1
e|-----------------------------------------------------|
B|-----------------------------------------------------|
G|-----------7-------------------------7---------------|
D|-----4---7-------7-----9-------4---7-------7---9---9-|
A|---4---5-------7-----9-------4---5-------7-----9---9-|
E|-2-----------5-----7-------2-----------5-----7-7-7-7-|
   . .   . .   . .   . .     . .   . .   . .   .   .

e|-------------------------------------------------|
B|-------------------------------------------------|
G|---------7-7-7-7-------------------------7-7-7-7-|
D|-4-4-4-4-7-7-7-7-7-7-7-7-9-9-9-9-4-4-4-4-7-7-7-7-|
A|-4-4-4-4-5-5-5-5-7-7-7-7-9-9-9-9-4-4-4-4-5-5-5-5-|
E|-2-2-2-2---------5-5-5-5-7-7-7-7-2-2-2-2---------|
   . . . . . . . . . . . . . . . . . . . . . . . .

Pre-Chorus
e|-----------------------------------------|
B|-----------------------------------------|
G|-6-6-6-6-6-6-6-6-10-10-10-10-10-10-10-10-|
D|-6-6-6-6-6-6-6-6-10-10-10-10-10-10-10-10-|
A|-4-4-4-4-4-4-4-4--8--8--8--8--8--8--8--8-|
E|-----------------------------------------|

Chorus
e|-----------------------------------------------------------------|
B|-----------------------------------------------------------------|
G|-11-11-11-11-7-7-7-7---------9-9-9-9-11-11-11-11-7-7-7-7---------|
D|-11-11-11-11-7-7-7-7-7-7-7-7-9-9-9-9-11-11-11-11-7-7-7-7-7-9-6-7-|
A|--9--9--9--9-5-5-5-5-7-7-7-7-7-7-7-7--9--9--9--9-5-5-5-5-7-9-6-7-|
E|---------------------5-5-5-5-----------------------------5-7-4-5-|

e|---------------------------------------------------------------------|
B|---------------------------------------------------------------------|
G|-11-11-11-11-7-7-7-7---------9-9-9-9---------------------------------|
D|-11-11-11-11-7-7-7-7-7-7-7-7-9-9-9-9-4-4-4-4-4-4-4-4-7-7-7-7-7-7-7-7-|
A|--9--9--9--9-5-5-5-5-7-7-7-7-7-7-7-7-4-4-4-4-4-4-4-4-7-7-7-7-7-7-7-7-|
E|---------------------5-5-5-5---------2-2-2-2-2-2-2-2-5-5-5-5-5-5-5-5-|

Post-Chorus
e|----------------------------------------------------0~0~-|
B|----------------------------------------------------0~0~-|
G|--------2-2-2---------4-0-4-0---------2-2-2--------------| x2
D|-4-0-4--0-0-0--2-2-2--4-0-4-0--4-0-4--0-0-0--2-2-2-------|
A|-4-0-4---------0-0-0--2-0-2-0--4-0-4---------0-0-0-------|
E|-2-0-2-------------------------2-0-2---------------------|

Verse 2
e|-----------------------------------------------------|
B|-----------------------------------------------------|
G|-----------7-------------------------7---------------|
D|-----4---7-------7-----9-------4---7-------7---9---9-|
A|---4---5-------7-----9-------4---5-------7-----9---9-|
E|-2-----------5-----7-------2-----------5-----7-7-7-7-|
   . .   . .   . .   . .     . .   . .   . .   .   .

e|-------------------------------------------------|
B|-------------------------------------------------|
G|---------7-7-7-7-------------------------7-7-7-7-|
D|-4-4-4-4-7-7-7-7-7-7-7-7-9-9-9-9-4-4-4-4-7-7-7-7-|
A|-4-4-4-4-5-5-5-5-7-7-7-7-9-9-9-9-4-4-4-4-5-5-5-5-|
E|-2-2-2-2---------5-5-5-5-7-7-7-7-2-2-2-2---------|
   . . . . . . . . . . . . . . . . . . . . . . . .

Pre-Chorus
e|-----------------------------------------|
B|-----------------------------------------|
G|-6-6-6-6-6-6-6-6-10-10-10-10-10-10-10-10-|
D|-6-6-6-6-6-6-6-6-10-10-10-10-10-10-10-10-|
A|-4-4-4-4-4-4-4-4--8--8--8--8--8--8--8--8-|
E|-----------------------------------------|

Chorus
e|-----------------------------------------------------------------|
B|-----------------------------------------------------------------|
G|-11-11-11-11-7-7-7-7---------9-9-9-9-11-11-11-11-7-7-7-7---------|
D|-11-11-11-11-7-7-7-7-7-7-7-7-9-9-9-9-11-11-11-11-7-7-7-7-7-9-6-7-|
A|--9--9--9--9-5-5-5-5-7-7-7-7-7-7-7-7--9--9--9--9-5-5-5-5-7-9-6-7-|
E|---------------------5-5-5-5-----------------------------5-7-4-5-|

e|---------------------------------------------------------------------|
B|---------------------------------------------------------------------|
G|-11-11-11-11-7-7-7-7---------9-9-9-9---------------------------------|
D|-11-11-11-11-7-7-7-7-7-7-7-7-9-9-9-9-4-4-4-4-4-4-4-4-7-7-7-7-7-7-7-7-|
A|--9--9--9--9-5-5-5-5-7-7-7-7-7-7-7-7-4-4-4-4-4-4-4-4-7-7-7-7-7-7-7-7-|
E|---------------------5-5-5-5---------2-2-2-2-2-2-2-2-5-5-5-5-5-5-5-5-|

Post-Chorus
e|----------------------------------------------------0~0~-|
B|----------------------------------------------------0~0~-|
G|--------2-2-2---------4-0-4-0---------2-2-2--------------| x2
D|-4-0-4--0-0-0--2-2-2--4-0-4-0--4-0-4--0-0-0--2-2-2-------|
A|-4-0-4---------0-0-0--2-0-2-0--4-0-4---------0-0-0-------|
E|-2-0-2-------------------------2-0-2---------------------|

Bridge
e|---------------------------------|
B|---------------------------------|
G|---------7-7-7-7---------6-6-6-6-| x3
D|-4-4-4-4-7-7-7-7-7-7-7-7-6-6-6-6-|
A|-4-4-4-4-5-5-5-5-7-7-7-7-4-4-4-4-|
E|-2-2-2-2---------5-5-5-5---------|

e|--------------------------------------------------------------|
B|--------------------------------------------------------------|
G|-----------------7-7-7-7-7-7-7-7-----------------6~~~~~~5*----|
D|-4-4-4-4-4-4-4-4-7-7-7-7-7-7-7-7-7-7-7-7-7-7-7-7-6~~~~~~5*----|
A|-4-4-4-4-4-4-4-4-5-5-5-5-5-5-5-5-7-7-7-7-7-7-7-7-4~~~~~~5*----|
E|-2-2-2-2-2-2-2-2-----------------5-5-5-5-5-5-5-5--------------|
   . . . . . . . . . . . . . . . . . . . . . . . .

Chorus
e|-----------------------------------------------------------------|
B|-----------------------------------------------------------------|
G|-11-11-11-11-7-7-7-7---------9-9-9-9-11-11-11-11-7-7-7-7---------|
D|-11-11-11-11-7-7-7-7-7-7-7-7-9-9-9-9-11-11-11-11-7-7-7-7-7-9-6-7-|
A|--9--9--9--9-5-5-5-5-7-7-7-7-7-7-7-7--9--9--9--9-5-5-5-5-7-9-6-7-|
E|---------------------5-5-5-5-----------------------------5-7-4-5-|

e|---------------------------------------------------------------------|
B|---------------------------------------------------------------------|
G|-11-11-11-11-7-7-7-7---------9-9-9-9---------------------------------|
D|-11-11-11-11-7-7-7-7-7-7-7-7-9-9-9-9-4-4-4-4-4-4-4-4-7-7-7-7-7-7-7-7-|
A|--9--9--9--9-5-5-5-5-7-7-7-7-7-7-7-7-4-4-4-4-4-4-4-4-7-7-7-7-7-7-7-7-|
E|---------------------5-5-5-5---------2-2-2-2-2-2-2-2-5-5-5-5-5-5-5-5-|

e|-----------------------------------------------------------------|
B|-----------------------------------------------------------------|
G|-11-11-11-11-7-7-7-7---------9-9-9-9-11-11-11-11-7-7-7-7---------|
D|-11-11-11-11-7-7-7-7-7-7-7-7-9-9-9-9-11-11-11-11-7-7-7-7-7-9-6-7-|
A|--9--9--9--9-5-5-5-5-7-7-7-7-7-7-7-7--9--9--9--9-5-5-5-5-7-9-6-7-|
E|---------------------5-5-5-5-----------------------------5-7-4-5-|

e|---------------------------------------------------------------------|
B|---------------------------------------------------------------------|
G|-11-11-11-11-7-7-7-7---------9-9-9-9---------------------------------|
D|-11-11-11-11-7-7-7-7-7-7-7-7-9-9-9-9-4-4-4-4-4-4-4-4-7-7-7-7-7-7-7-7-|
A|--9--9--9--9-5-5-5-5-7-7-7-7-7-7-7-7-4-4-4-4-4-4-4-4-7-7-7-7-7-7-7-7-|
E|---------------------5-5-5-5---------2-2-2-2-2-2-2-2-5-5-5-5-5-5-5-5-|

Outro
e|--------------------------------|
B|--------------------------------|
G|--------------------------------|
D|-4-4~~-4-4-4~~-4-7-7~~-4-7-7~~/-|
A|-4-4~~-4-4-4~~-4-7-7~~-4-7-7~~/-|
E|-2-2~~-2-2-2~~-2-5-5~~-2-5-5~~/-|

Post one or message me with comments (jesus4life23)
Thanks!!

            
            
Suggest correction
Creating personal tab
Creating personal tab
You can edit any tab online and save it as your Personal.

You can edit, replace or remove any tab part or add personal notes – all changes will be seen only by you.

Personal tabs can be accessed anytime from any device, even offline.
Learn more »
comments
print report bad tab
1 comment total.
0 reply
daniel.southwor 10 Apr 06, 2013 04:00 PM

Nice tab but I think the

Intro
e|----------------------------------------------------0~0~-|
B|----------------------------------------------------0~0~-|
G|--------2-2-2---------4-0-4-0---------2-2-2--------------| x2
D|-4-0-4--0-0-0--2-2-2--4-0-4-0--4-0-4--0-0-0--2-2-2-------|
A|-4-0-4---------0-0-0--2-0-2-0--4-0-4---------0-0-0-------|
E|-2-0-2-------------------------2-0-2---------------------|

Is actually
Intro
e|----------------------------------------------------2~2~-|
B|----------------------------------------------------2~2~-|
G|--------2-2-2---------4-0-4-0---------2-2-2--------------| x2
D|-4-0-4--0-0-0--2-2-2--4-0-4-0--4-0-4--0-0-0--2-2-2-------|
A|-4-0-4---------0-0-0--2-0-2-0--4-0-4---------0-0-0-------|
E|-2-0-2-------------------------2-0-2---------------------|

guest
You may want to rate the tab now too:
select rating
Wanna post a correction for this tab? Suggest correction