Oops, an error
Loading. Please wait.

Breathing In Sequence bass

1,148 views 1 this week
no commentswrite comment
1 2 3 4 5
x 4
add to favorites
×
Save as Personal and add changes to this tab that will be seen only by you. Learn more ›
×
You can save this tab as Personal to edit and correct it or add notes. All changes will be seen only by you. Learn more »
launch autoscroll
font size
0
reset
guitar tuner
edit
Autoscroll
slow
fast
+/-
esc
set tempo
stop
++++++++++++++++++++++++++++++++++++++++++++
| Hawthorne Heights- Breathing In Sequence |
++++++++++++++++++++++++++++++++++++++++++++

Tuning: Drop D (DADG)

Intro
1.
G|-----------------------------------------------------------|
D|-----------------------------------------------------------|
A|---------1-1-1-1-2-2-2-2-4-4-4-4---------1~--xx--2~--------|
D|-1-1-1-1-------------------------1~--xx--------------------|

Verse
"Breathing in the same sequence..."
2.
G|-----------------------------------------------------|
D|-------------------------------11-1----------11-1----|
A|-22x---22-24~-22x---22-24~----------4~------------1~-|--x2
D|---------------------------11x---------11x--1--------|

Pre-Chorus
"Best friends till the end..."
3.
G|-----------|
D|-----------|
A|-2~--------|
D|-----------|

"This could be..."
4.
G|-----------------------------------------|
D|-----------1~----------------1~----------|
A|-4-4-----------2-2-4-4-----------2-2-22x-|
D|-----1~----------------1~----------------|

Chorus
"So close your eyes..."
5.
G|-----------------------------------------------------------------------|
D|---1~------------------------------------------------------------------|
A|-4------------------4444444444444444-2222222222222222-4444444444444444-|
D|------1-11111111111----------------------------------------------------|

6.
G|-----------------------------------------------------------------------|
D|---1~------------------------------------------------------------------|
A|-4------------------4444444444444444-2-2-2-2-2-2-2-22/4444444444444444-|
D|------1-11111111111----------------------------------------------------|

Verse
"I wish I could..."
7.
G|---------------------------------------------------------------------|
D|---------------------------------------------------------------------|
A|-22222x--2222-444-22222x--2222-444--------------444--------------444-|--x2
D|-----------------------------------11111x--1111-----11111x--1111-----|

Pre-Chorus
"This could be..."
8.
G|-----------------------------------------|
D|-----------1~----------------1~----------|
A|-4-4-----------2-2-4-4-----------2-2-22x-|
D|-----1~----------------1~----------------|

Chorus
"So close your eyes..."
9.
G|-----------------------------------------------------------------------|
D|---1~------------------------------------------------------------------|
A|-4------------------4444444444444444-2222222222222222-4444444444444444-|
D|------1-11111111111----------------------------------------------------|

10.
G|--------------------------------------------------------------------------|
D|---1~----------------------------------------------------------4~---3~--1-|
A|-4------------------4444444444444444-2-2-2-2-2-2-2-22/44444444------------|
D|------1-11111111111-------------------------------------------------------|

Outro
11.
G|-------------------------------------|
D|-------------------------------------|
A|-------------------------------------|
D|-1111111~-1111111~-1111111~-1111111~-|

12.
G|----------------------------------------------------------------------------------|
D|----------------------------------------------------------------------------------|
A|-----------------------------------------22-22222-222-22222-244-44444-444-44444-4-|
D|-11-11111-111-11111-111-11111-111-11111-1-----------------------------------------|

13.
G|-------------------------------------------------------------------------|
D|-------------------------------------------------------------------------|
A|-------------------------------------22222222-22222222/44444444-44444444-|
D|-11111111-11111111-11111111-11111111-------------------------------------|

Chorus
"So close your eyes..."
14.
G|-----------------------------------------------------------------------|
D|---1~------------------------------------------------------------------|
A|-4------------------4444444444444444-2-2-2-2-2-2-2-22/4444444444444444-|--x2
D|------1-11111111111----------------------------------------------------|

Outro
15.
G|-------------------------------------------------------------------------|
D|-------------------------------------------------------------------------|
A|----------1-111111-2-222222-4-444444----------1-111111-2-222222-4-4444~--|
D|-1-111111----------------------------1-111111----------------------------|

"Beauty's on the inside..."
16.
G|------------------------------------------------------------|
D|------------------------------------------------------------|
A|---------1-1-1-1-2-2-2-2-4-4-4-4---------1~-x-x-x-2~--------|
D|-1-1-1-1-------------------------1~--xx---------------------|

Lyrics:

Breathing in the same sequence
While trying to make sense of your situation
That we got ourselves in, two more weeks of one way conversation
She swears she's losing interest
I swear that we are best friends till the end

This could be the plans for revenge
But these words lead to dead ends

So close your eyes and kiss me like it's the last time
These lips need medication, these days are dripping poison, girl
Days to turn to nights I wish on the stars in the sky
Be careful of the brightest, beauty is on the inside

I wish I could but I know I can't take it back,
It's serious just like heart-attacks
Our personality, avoid the scenery,
I hate playing games with the industry
That builds these dreams and tears them down
When my heart breaks, it makes a sound

+++++++++++++++++++++++++++++++++
| RaiLeff                       |
| Underground__Dora@Hotmail.Com |
+++++++++++++++++++++++++++++++++

            
            
Suggest correction
Creating personal tab
Creating personal tab
You can edit any tab online and save it as your Personal.

You can edit, replace or remove any tab part or add personal notes – all changes will be seen only by you.

Personal tabs can be accessed anytime from any device, even offline.
Learn more »
comments
print report bad tab
guest
You may want to rate the tab now too:
select rating
Wanna post a correction for this tab? Suggest correction