Oops, an error
Loading. Please wait.

Nikki Fm bass

version 1
version 1

Whole song

Interactive

420 views 1 this week
no commentswrite comment
1 2 3 4 5
3 more votes to show rating
add to favorites
×
Save as Personal and add changes to this tab that will be seen only by you. Learn more ›
×
You can save this tab as Personal to edit and correct it or add notes. All changes will be seen only by you. Learn more »
launch autoscroll
font size
0
reset
guitar tuner
edit
Autoscroll
slow
fast
+/-
esc
set tempo
stop
Author
Difficulty
Hawthorne Heights 
Nikki Fm 
Standard Tuning ( EADG )


the tabs on this song are right but there are things missing
so i worked with it and i think this is it if places sound 
off its probably because your picking it to fast alot of it 
is very slow ring outs 

      Intro
G|--------------------------|
D|--------------------------|
A|----4----6--7----0-----2--|
E|--------------------------|




G------------|
D------------|
A-----4------|
E-------0--5-|



   Verse
G-------------------------------------------|
D-------------------------------------------|
A----44--44--44--44----00--00--00--00-----2-|
E-------------------------------------------|


G-------------------------------------------------------|
D-------------------------------------------------------|
A----44--44--4/7--44--44--4\3--00--00--4\3--00--00----2-|
E-------------------------------------------------------|


G----------------------------------------------------------|
D----------------------------------------------------------|
A----44--44--4/7--44--44--4\3--00--00--4\3--00--00---2-3-2-|
E----------------------------------------------------------|


G|---------------------------------------------------------------|
D|---------------------------------------------------------------|
A|----4~----7~----0~~---2--2/4~---4~---7~--7/9--9----0~----2~----|
E|---------------------------------------------------------------|


G-----------|
D-----------|
A----4------|
E------0--5-|



   Chorus
G-----------------------------------|
D-----------------------------------|
A----4444--444--4-2---0---2---0---2-|
E-----------------------------------|



    Verse
G-------------------------------------------|
D-------------------------------------------|
A----44--44--44--44----00--00--00--00-----2-|
E-------------------------------------------|


G-------------------------------------------|
D-------------------------------------------|
A----44--44--44--44----00--00--00--00-----2-|
E-------------------------------------------|

G---------------------------------------------------|
D---------------------------------------------------|
A----44--44--4/7--44--44--4\3--00--00---00--00----2-|
E---------------------------------------------------|
    
G-----------------------------------------------------------|
D-----------------------------------------------------------|
A----44--44--4/7--44--44--4\3--00--00--4\3--00--00---2-3-2--|
E-----------------------------------------------------------|

G------------------------------------|
D------------------------------------|
A----4~----7~-----0~-----2--2/4--4~~-|
E------------------------------------|



   Chorus
G---------------------------------------------|
D---------------------------------------------|
A----4444--444--4-2---0---2---0---2----4------|
E----------------------------------------0--5-|

G-------------------------------------------|
D-------------------------------------------|
A----4444--444--4-2---0~---2~---0~---2~---4-|
E-------------------------------------------|




G|----------------------|
D|----------------------|
A|----00000000000000000-|
E|----------------------|



G|---------------------------|
D|-----------------------~---|
A|----4~---6--7----0~----2---|
E|---------------------------|



    Brigde
G|-------------------------------------|
D|-------------------------------------|
A|---44----44---22---00----22--------~-|
E|------00----0----0----00----00-------|

G|-------------------------------------|
D|-------------------------------------|
A|---44----44---22---00----22--------~-|
E|------00----0----0----00----00-------|

G|-------------------------------------|
D|-------------------------------------|
A|---44----44---22---00----22--------~-|
E|------00----0----0----00----00-------|

G|---------------------------------------|
D|---------------------------------------|
A|---44----44---22---00----22--------4~~-|
E|------00----0----0----00----00---------|



      Outtro
G|-------------------------|
D|-------------------------|
A|----/4----6--7----0~---2~|
E|-------------------------|



thats it have fun please vote and rate  Thanks =)

            
            
Suggest correction
Creating personal tab
Creating personal tab
You can edit any tab online and save it as your Personal.

You can edit, replace or remove any tab part or add personal notes – all changes will be seen only by you.

Personal tabs can be accessed anytime from any device, even offline.
Learn more »
Give kudos to tab author, rate the tab!
1 2 3 4 5
comments
print report bad tab
guest
You may want to rate the tab now too:
select rating
Wanna post a correction for this tab? Suggest correction