Oops, an error
Loading. Please wait.

Saying Sorry tab

version 2
version 2

Whole song

3,176 views 1 this week
5 commentsread comments
1 2 3 4 5
x 3
add to favorites
×
Save as Personal and add changes to this tab that will be seen only by you. Learn more ›
×
You can save this tab as Personal to edit and correct it or add notes. All changes will be seen only by you. Learn more »
launch autoscroll
font size
0
reset
how to read this tab
guitar tuner
edit
Autoscroll
slow
fast
+/-
esc
set tempo
stop
Author
Difficulty
ok easy song... but really cool and catchy


intro.
           repeat frist part of inttro 3 times then go into pre verse
<----------------------------------------------------------------->
<----------------------------------------------------------------->
<--6-----------9-------------------------------------------------->
<--6-----------9-------9------------------------------------------>
<--4-----------7-------9------------------------------------------>
<----------------------7------------------------------------------>

pre-verse

<---------------------------------------------------------------->
<---------------------------------------------------------------->
<---------------------------------------------------------------->
<---7------9----------------------------------------------------->
<---7------9----------------------------------------------------->
<---5------7----------------------------------------------------->


verse
pm at first and let it go repeat 2 times
<---------------------------------------------------------------->
<---------------------------------------------------------------->
<---------------------------------------------------------------->
<--11-------11---------7--------9-------------------------------->
<--11-------11---------7--------9-------------------------------->
<---9--------9---------5--------7-------------------------------->


pre-chorus
i'm not two sure about this part...
<-0---0----0----------------------------------------------------->
<-0---0----0----------------------------------------------------->
<---------------------------------------------------------------->
<---------------------------------------------------------------->
<-4--------0----------------------------------------------------->
<---------------------------------------------------------------->

chorus.
repeat first part 2 times and then go into verse 
<---------------------------------------------------------------->
<---------------------------------------------------------------->
<-----13-------8---------9--------11----9------------------------>
<---7-14---9---9---11----9---9---------------9---9--------------->
<---7-11---9---6---11----7---9-----9----7----9---9--------------->
<---5------7--------9--------7---------------7--11--------------->



2 verse

<---------------------------------------------------------------->
<-----6-7--------------6-7--------------------------------------->
<--6-----6----8--6--------6--8-----2--4-------------------------->
<--6-------------6-----------------2--4-------------------------->
<--4-------------4-----------------0--2-------------------------->
<---------------------------------------------------------------->


pre-chorus



chorus






bridge

<-----0------0-------0-------0----------------------------------->
<-----0------0-------0-------0----------------------------------->
<-4---6--4---6---4---2----4--2---4------------------------------->
<-4---6--4---6---4---2----4--2---4------------------------------->
<-2---4--2---4---2---0----2--0---2------------------------------->
<-----0------0-------0-------0----------------------------------->


back to chorus 

...and that's the game i hope you like it because i broke my back to get it right......





            
            
Suggest correction
Creating personal tab
Creating personal tab
You can edit any tab online and save it as your Personal.

You can edit, replace or remove any tab part or add personal notes – all changes will be seen only by you.

Personal tabs can be accessed anytime from any device, even offline.
Learn more »
Give kudos to tab author, rate the tab!
1 2 3 4 5
comments
print report bad tab
5 comments total. Showing first comments.
0 reply
aznskater4life 30 Mar 19, 2006 05:12 PM

short tab.

0 reply
aznskater4life 30 Mar 19, 2006 05:13 PM

first one to post

+1 reply
a7x_rocker_a7x 10 Mar 27, 2006 12:45 PM

nope. totally wrong. the chorus is just crap. sorry dude but this sucks more than your mom last night.

guest
You may want to rate the tab now too:
select rating
Wanna post a correction for this tab? Suggest correction