Oops, an error
Loading. Please wait.

Saying Sorry tab

version 3
version 3

Whole song

30,457 views 18 this week
29 commentsread comments
1 2 3 4 5
x 31
add to favorites
×
Save as Personal and add changes to this tab that will be seen only by you. Learn more ›
×
You can save this tab as Personal to edit and correct it or add notes. All changes will be seen only by you. Learn more »
launch autoscroll
font size
0
reset
how to read this tab
guitar tuner
edit
Autoscroll
slow
fast
+/-
esc
set tempo
stop
Author
Difficulty
intermediate
Standard Tuning

[Intro Lead]
e|--------------------12-14---|
B|--14-12-14-12-14-12-14-14---|
G|--13-13-13-13-13-13-13-13---|
D|--11-11-11-11-11-11-11-11---|
A|----------------------------|
E|----------------------------|

[Intro Rhythm]
e|-------------------------|
B|-------------------------|
G|--6-9---6-9---6-9--------|
D|--6-9-9-6-9-9-6-9-9-7-9--|
A|--4-7-9-4-7-9-4-7-9-7-9--|
E|------7-----7-----7-5-7--|

[Verse Rhythm x4]
e|--------------------|
B|--------------------|
G|--66-6~-------------|
D|--66-6~-------------|
A|--44-4~-------------|
E|--------------------|
   **

[Verse Lead]
e|--------------------------------------|
B|--------------------------------------|
G|--66-6~--66-6~--------------88--------|
D|--66-6~--66-6~-----77-----99--99------|
A|--44-4~--44-4~---77--77-77------------|
E|---------------55---------------------|
   **     **    ******** ********

[Pre-Chorus Lead]
e|--4-44-4-44-4-4h5p4-4-44-4-44-4-44------------------------|
B|---5----5------------5----5----5----14-14--14-14-14-------|
G|------------------------------------13-13--13-13-13-------|
D|------------------------------------11-11--11-11-11-------|
A|----------------------------------------------------------|
E|----------------------------------------------------------|

[Pre-Chorus Rhythm]
e|---------------------------------------------|
B|---------------------14-14--14-14-14---------|
G|---------------------13-13--13-13-13---------|
D|---------------------11-11--11-11-11---------|
A|--7-9-11-9-7-9-11-9--------------------------|
E|--5-7-9--7-5-7-9--7--------------------------|
   * * *  * * * *  *

[Chorus Both x2]
e|--------------------------------|
B|----12---10----9---7-5----------|
G|----11---9-----8---6-4----------|
D|--7-9--9-7--11-6-9-4-2----------|
A|--7----9----11---9--------------|
E|--5----7----9----7--------------|

[Verse 2 Lead x2]                 (Dont play this 2nd time)
e|------------------------|   |----------------------------|
B|-------------4h5p4-2-02-|   |--5---5---7---7-------------|
G|--6-666666--------------|   |---666-666-888-88-----------|
D|--6-666666--------------|X2 |----------------------------|
A|--4 444444--------------|   |----------------------------|
E|------------------------|   |----------------------------|
     ******
2nd time ending
e---------|
b-2~--5~--|
g---------|
d---------|
a---------|
E---------|

[Verse 2 Rhythm x2]
e|------------------|   |---------|
b|------------------|   |---------|
g|--6-6666666666666-|   |---------|
d|--6-6666666666666-|x2 |---7--9--|
a|--4-4444444444444-|   |---7--9--|
E|------------------|   |--5~-7~--|
     *************

[repeat pre-chorus and chorus]
[Bridge Lead, you may have to listen a little]
e|------------------------|   |-----------|
B|------------------------|   |-----------|
G|-----------1------------|   |-----------|
D|----------2---4~--------|x2 |-----------|
A|-2-4~-2-4~--------2-0~--|   |--2-0~-----|
E|------------------------|   |-----------|

[Bridge Rhythm, Acoustic]
e|---0-0-----|
B|---0-0-----|
G|---6-4-----|
D|---6-4-7---|
A|---4-2-7---|
E|-------5---|

[Synthesizer part, Rhythm]
e|--16----16----16----16~-|   e|--16----16----16----16~-|
b|----17----17----17------|   b|----17----17----17------|
g|------16----16----16----|   g|------14----14----14----|
d|------------------------|x2 d|------------------------|
a|------------------------|   a|------------------------|
E|------------------------|   E|------------------------|

e|--12----12----12----12~--12~----|
B|b----12----12----12-----12------|
G|g------13----13----13-----------|
D|d-------------------------------|
A|a-------------------------------|
E|--------------------------------|

[repeat chorus a few times]
[Outro Lead]
e|-----------------------------------|
B|--12-14--10-12-9-5-7-9-10-9--------|
G|--11-13--9--11-8-4-6-8-9--8~-------|
D|--9--11--7--9--6-2-4-6-7--6~-------|
A|-----------------------------------|
E|-----------------------------------|

[Outro Rhythm]
e|--------------|
B|--------------|
G|--------------|
D|--7-9-11-7~---|
A|--7-9-11-7~---|
E|-5-7-9--5~----|


************************************

| ~  Vibrato
| h  Hammer-on
| p  Pull-off
| x  Dead note
| b  Bend
| g  Grace note

************************************

            
            
Suggest correction
Creating personal tab
Creating personal tab
You can edit any tab online and save it as your Personal.

You can edit, replace or remove any tab part or add personal notes – all changes will be seen only by you.

Personal tabs can be accessed anytime from any device, even offline.
Learn more »
comments
print report bad tab
29 comments total. Showing first comments.
0 reply
12345678910 82 Mar 20, 2006 03:52 PM

Keep it up dude. 5 stars.

0 reply
joey972 10 Mar 23, 2006 10:41 PM

i think Chorus Both x2 should be like this
e---------------------------|
b----12---10----9---7-5-----|
g----x----x-----x---x-x-----|
d--7-9--9-7--11-6-9-4-2-----|
a--7----9----11---9---------|
E--5----7----9----7---------|

and outro like this

e-----------------------------------|
b--12-14--10-12-9--5-7-9-10-9-~-----|
g--x--x---x--x--x--x-x-x-x--x-~-----|
d--9--11--7--9--6--2-4-6-7--6-~-----|
a-----------------------------------|
E-----------------------------------|

-2 reply
a7x_rocker_a7x 10 Mar 27, 2006 12:48 PM

good tab but i dont really think theres a synthesizer part. but im not sure.

guest
You may want to rate the tab now too:
select rating
Wanna post a correction for this tab? Suggest correction