Oops, an error
Loading. Please wait.

We Are So Last Year ukulele

26 views 1 this week
no commentswrite comment
1 2 3 4 5
3 more votes to show rating
add to favorites
×
Save as Personal and add changes to this tab that will be seen only by you. Learn more ›
×
You can save this tab as Personal to edit and correct it or add notes. All changes will be seen only by you. Learn more »
launch autoscroll
font size
0
reset
transpose
0
reset
display chords
guitar tuner
edit
Autoscroll
slow
fast
+/-
esc
set tempo
stop
Strumming
There is no strumming pattern for this song yet. and get +5 IQ
WE ARE SO LAST YEAR - Hawthorne Heights
tabbed by Jonathan Ikan

i know im missing things, but it sounds pretty good to me... yea its my first tab =) 
sorry, but ya figure out the rhythm on your own.

Intro

we're falling faster...

|--0(x12)----0(x12)-----------------0(x12)---0(x12)-------------------------0------|
|--2---------2----------------------2--------2----------------------------4---0-2--|
|6---------6----------------------6--------6-----------------------66644-----------|
|6---------6--------4(x8)--7(x7)--6--------6---------4(x8)--7(x7)--66644-----------|
|4---------4--------4------7------4--------4---------4------7------44422-----------|
|-------------------2------5-------------------------2------5----------------------|


Verse

I wish i could have known you better....

|------4---0--------------4---0------------------0------|
|--------4---4-2------------4---4-0----------------4-2--|
|6(x5)--------------6(x5)-----------------4(x5)---------| repeat again.
|6------------------6---------------------4-------------|  
|4------------------4---------------------2-------------|
|-------------------------------------------------------|

...getting worse

|----------| 
|----------| 
|6~--------|
|6~--------|
|4~--------|
|----------|

Pre-Chorus

sleep in...

|--------------------------| 
|--------------------------| 
|--------------------------|
|9--7--9--7--9--7--77------|
|9--7--9--7--9--7--77------|
|7--5--7--5--7--5--55------|
                   xx

Chorus

i just wanted you to know...

|----------------------------------------------------------------------------------|
|----------------------------------------------------------------------------------| 
|----------------------------------------------------------------------------------| 
|7--9--6--*--9--7--9--6--*--9--7(x4)--9(x4)--6(x4)--*(x2)--9(x2)--7(x4)--9(x4)-----|
|7--9--6--*--9--7--9--6--*--9--7------9------6------*------9------7------9---------|
|5--7--4--9--7--5--7--4--9--7--5------7------4------9------7------5------7---------|

2nd Guitar

|0-0(x6)----------0---0-------| 
|--------4-4(x6)----4--4------| repeat accordingly.
|-----------------------------|
|-----------------------------|
|-----------------------------|
|-----------------------------| 

Post-Chorus

...happy ending..

|-----------------------------| 
|-----------------------------|
|6--6-6--666--6-64------------|
|6--6-6--666--6-64------------|
|4--4-4--444--4-42------------|
|-----------------------------| 

Verse (x1)
Pre-Chorus(x1)
Chorus(x1)
Post-Chorus(x1)


                .....with this life

|--0(x12)----0(x12)------------------------|
|--2---------2-----------------------------|
|6---------6-------------------------------|
|6---------6---------4(x8)--7(x7)----------|
|4---------4---------4------7--------------|
|--------------------2------5--------------|

Repeart Chorus(x1) (clean electric - soft)

|----------------------------| 
|----------------------------|
|6--998--4--998--------------|
|6--998--6--998--------------|
|4--776--6--776--------------|
|----------------------------| 

Chorus (x2)

extra riff


|12------16^------------------| 
|--12-------------------------|
|-----------------------------|
|-----------------------------|
|-----------------------------|
|-----------------------------| 

ending

|----------------------------------------------| 
|----------------------------------------------|
|6--6-6--666--6-64--6--6-6--666--6-64--6-66----|
|6--6-6--666--6-64--4--6-6--666--6-64--6-66----|
|4--4-4--444--4-42--4--4-4--444--4-42--4-44----|
|----------------------------------------------| 

            
            
Suggest correction
Creating personal tab
Creating personal tab
You can edit any tab online and save it as your Personal.

You can edit, replace or remove any tab part or add personal notes – all changes will be seen only by you.

Personal tabs can be accessed anytime from any device, even offline.
Learn more »
Give kudos to tab author, rate the tab!
1 2 3 4 5
comments
print report bad tab
guest
Wanna post a correction for this tab? Suggest correction