Oops, an error
Loading. Please wait.

Eso Es Amor tab

by Hazel
45 views 1 this week
no commentswrite comment
1 2 3 4 5
3 more votes to show rating
add to favorites
×
Save as Personal and add changes to this tab that will be seen only by you. Learn more ›
×
You can save this tab as Personal to edit and correct it or add notes. All changes will be seen only by you. Learn more »
launch autoscroll
font size
0
reset
how to read this tab
guitar tuner
edit
Autoscroll
slow
fast
+/-
esc
set tempo
stop
Este es el arpegeo para la rola.
Solo son arpegeos de C y G pero con cejilla en las cuerdas
correctas.
*NOTA*SE TOCAN LAS CUERDAS SIN PRESIONAR MUHO EN LOS TRASTES.
SON NOTAS APAGADAS

Leyenda de las notas
X= nota apagada

*AL PRINCIPIO SE EMPIEZA CON PURO ARPEGEO DE DO Y
 DESPUES CUANDO ENTRA EL ACORDEON YA SE TOCA ASI,CON DO Y SOL
Y ES LO MISMO EN LA LETRA DE LA CANCION*

   C
xxxxxxxxxxxxxxxxxxxxxxxxxxxxxxxxxxxxxxxxxxxx
e------------------------------------------|
b----------5-5-5---------------5-5-5-------|
g--------5-------5-5-5-------5-------5-5-5-|
d--5-5-5---------------5-5-5---------------|
a------------------------------------------|
e------------------------------------------|

G
xxxxxxxxxxxxxxxxxxxxxxxxxxxxxxxxxxxxxx
e--------------------------------------|
b--------------------------------------|
g---------4-4-4---------------4-4-4----|
d-------5-------5-5-5-------5-------5--|
a-5-5-5---------------5-5-5------------|
e--------------------------------------|

Ya saben el arpegeo, ahora solo métanlos en la canción.

Cuando llegas a la parte del coro
Es así:

  D                   G   A  C
 Sabes que yo les digo que te quiero
xxxxxxxxxxxxxxxxxxxxxxxxxxxxxxxxxxxxxxxxxxxxxxxxxx
e--------|--------------|------|------------------
b------7-|--------------|------|-----5--------5---
g------7-|-----------4--|----6-|-----5--------5---
d--7-7---|-----------5--|----7-|-5-5------5-5-----
a--------|--------------|------|------------------
e--------|--------------|------|------------------

y ya va de nuevo la parte del principio.

Ps hay la dejo pa k la toquen,está papA,
nomas que escúchenla bien pa que sepan que pedo con el
cambio.

Y ya saben dudas, comentarios, correcciones o mentadas de madre,
a mi correo drazgo_wh@

por ultimo nomas le kiero manadar saludos a viri k la kiero un buen
es una chava bien chida muy buena amiga.
saludos pa toda la banda rockera que escucha hazel.

oscar? amigo de gengar-(edgar, panda como le digan)eres bien wey.

viva el rock mexicano, ahuevo cabrones

            
            
Suggest correction
Creating personal tab
Creating personal tab
You can edit any tab online and save it as your Personal.

You can edit, replace or remove any tab part or add personal notes – all changes will be seen only by you.

Personal tabs can be accessed anytime from any device, even offline.
Learn more »
Give kudos to tab author, rate the tab!
1 2 3 4 5
comments
print report bad tab
guest
Wanna post a correction for this tab? Suggest correction