Oops, an error
Loading. Please wait.

January Best Friends tab

8 views 1 this week
no commentswrite comment
1 2 3 4 5
3 more votes to show rating
add to favorites
×
Save as Personal and add changes to this tab that will be seen only by you. Learn more ›
×
You can save this tab as Personal to edit and correct it or add notes. All changes will be seen only by you. Learn more »
launch autoscroll
font size
0
reset
how to read this tab
guitar tuner
edit
Autoscroll
slow
fast
+/-
esc
set tempo
stop
S = general strumming(listen to the song to figure it out)


[Intro]

(0:00)

e|----000-0X----0-0X-----0-00-000---|     |--00x---00x----0-00-000----000-0x---00x----0~----|
B|----555-5x----5-5x-----5-55-555---|     |--55x---55x----5-55-555----555-5x---55x----5~----|
G|----444-4x----4-4x-----4-44-444---|     |--00x---44x----0-00-000----000-0x---44x----0~----|
D|----000-0x----0-0x-----0-00-000---|x4   |--44x---00x----0-00-000----444-4x---00x----0~----|x1
A|----000-0x----6-6x-----4-44-444---|     |--44x---00x----4-44-444----444-4x---00x----4~----|
E|----------------------------------|     |--------44x----5-55-555-------------44x----5~----|


e|----000-0x----0-0x-----0-00-000---|     |--00x---00x---0~---|
B|----555-5x----5-5x-----5-55-555---|     |--55x---55x---5~---|
G|----444-4x----4-4x-----4-44-444---|     |--00x---44x---0~---|
D|----000-0x----0-0x-----0-00-000---|x3   |--44x---00x---0~---|x1
A|----000-0x----6-6x-----4-44-444---|     |--44x---00x---4~---|
E|----------------------------------|     |--00x---44x---5~---|

I could be your January best friend
If you promise to be mine too
I've been thinking what were doing for the weekend
Wondering if I'll see you soon
...see you soon, see you soon


[Verse]

(0:40)

e|--0--------0--------0---4-4-4--0-0-0-0-------------0-----0-----0--4-4-4--0-0-0-0----------|
B|--5--------5--------5---5-5-5--5-5-5-5-------------5-----5-----5--5-5-5--5-5-5-5----------|
G|--4--------4--------0---0-0-0--0-0-0-0-------------4-----4-----0--0-0-0--0-0-0-0----------|
D|--0--------4--------0---0-0-0--0-0-0-0-------------0-----4-----0--0-0-0--0-0-0-0----------|
A|--0--------0--------0---0-0-0--0-0-0-0-------------0-----0-----0--0-0-0--0-0-0-0----------|
E|--------------------5~--5-5-5--5-5-5-5-------------------------5--5-5-5--5-5-5-5----------|
    S        S                (S)                    S     S            (S)

e|--0-------0----0-----------0-------0----0---------0--0--0------0--0--0~-------------------|
B|--5-------5----5-----------5-------5----5---------5--5--5------5--5--5~-------------------|
G|--4-------0----0-----------4-------0----4---------0--4--0------0--4--0~-------------------|
D|--0-------4----0-----------0-------4----4---------4--0--0------4--0--0~-------------------|
A|--4-------4----4-----------4-------4----0---------4--0--4------4--0--4~-------------------|
E|---------------5----------------------------------0--4--5------0--4--5~-------------------|
    S       S    S           S       S    S         S  S  S      S  S

And I mark the day that I see you again
and I'm crossing out the lonely ones in pen
maybe you dont know how I feel when you're away
well baby I'm a 12 on the scale 1 through 10
...cuz I miss you everyday, I miss you every day


[Chorus]

(1:16)

e|--0--------0----------0------------0----------0-------0-----------------------------------|
B|--5--------5----------5------------5----------5-------5-----------------------------------|
G|--4--------4----------0------------4----------0-------4-----------------------------------|
D|--0--------4----------0------------0----------4-------4-----------------------------------|
A|--0--------0----------0------------4----------4-------0-----------------------------------|
E|----------------------5-------------------------------------------------------------------|
    S        S          S            S          S       S


e|--0--------0----------0------------0----------0-------0-----------------------------------|
B|--5--------5----------5------------5----------5-------5-----------------------------------|
G|--4--------4----------0------------4----------0-------4-----------------------------------|
D|--0--------4----------0------------0----------4-------4-----------------------------------|
A|--0--------0----------0------------4----------4-------0-----------------------------------|
E|----------------------5-------------------------------------------------------------------|
    S        S          S            S          S       S


e|----0-0-0--0x----0--0x-----0--0-0-0-0-0---|     |--0-0x---0-0x---0~---|
B|----5-5-5--5x----5--5x-----5--5-5-5-5-5---|     |--5-5x---5-5x---5~---|
G|----4-4-4--4x----4--4x-----4--4-4-4-4-4---|     |--0-0x---4-4x---0~---|
D|----0-0-0--0x----0--0x-----0--0-0-0-0-0---|x3   |--4-4x---0-0x---0~---|x1
A|----0-0-0--0x----6--6x-----4--4-4-4-4-4---|     |--4-4x---0-0x---4~---|
E|------------------------------------------|     |--0-0x---4-4x---5~---|

So I'll say (say) you'll be missed when you're away
And my feelings stay the same
Will you listen when I say
Will you stay (stay) holding hands for one more day
When the weekend fades away
I will love you just the same... always


[Verse]

(1:58)

e|--0--------0--------0---4-4-4--0-0-0-0-------------0-----0-----0--4-4-4--0-0-0-0----------|
B|--5--------5--------5---5-5-5--5-5-5-5-------------5-----5-----5--5-5-5--5-5-5-5----------|
G|--4--------4--------0---0-0-0--0-0-0-0-------------4-----4-----0--0-0-0--0-0-0-0----------|
D|--0--------4--------0---0-0-0--0-0-0-0-------------0-----4-----0--0-0-0--0-0-0-0----------|
A|--0--------0--------0---0-0-0--0-0-0-0-------------0-----0-----0--0-0-0--0-0-0-0----------|
E|--------------------5~--5-5-5--5-5-5-5-------------------------5--5-5-5--5-5-5-5----------|
    S        S                (S)                    S     S            (S)

e|--0-------0----0-----------0-------0----0---------0--0--0------0--0--0~---|---------------|
B|--5-------5----5-----------5-------5----5---------5--5--5------5--5--5~---|----5-/-4------|
G|--4-------0----0-----------4-------0----4---------0--4--0------0--4--0~---|----x---x------|
D|--0-------4----0-----------0-------4----4---------4--0--0------4--0--0~---|----x---x------|
A|--4-------4----4-----------4-------4----0---------4--0--4------4--0--4~---|----4-/-3------|
E|---------------5----------------------------------0--4--5------0--4--5~---|---------------|
    S       S    S           S       S    S         S  S  S      S  S            S   S

And I live my life just like an open book
And I've caught you stealing glances so just, go ahead and look
And This is no suprise when the pages start to fade
remember that your name could be found on every page
...cuz your always on my mind, always on my mind


[Chorus]

(2:36)

e|--0--------0----------0------------0----------0-------0-----------------------------------|
B|--5--------5----------5------------5----------5-------5-----------------------------------|
G|--4--------4----------0------------4----------0-------4-----------------------------------|
D|--0--------4----------0------------0----------4-------4-----------------------------------|
A|--0--------0----------0------------4----------4-------0-----------------------------------|
E|----------------------5-------------------------------------------------------------------|
    S        S          S            S          S       S


e|--0--------0----------0------------0----------0-------0-----------------------------------|
B|--5--------5----------5------------5----------5-------5-----------------------------------|
G|--4--------4----------0------------4----------0-------4-----------------------------------|
D|--0--------4----------0------------0----------4-------4-----------------------------------|
A|--0--------0----------0------------4----------4-------0-----------------------------------|
E|----------------------5-------------------------------------------------------------------|
    S        S          S            S          S       S


e|----0-0x---0-0x---0---|    |----------------|
B|----5-5x---5-5x---5---|    |-----5-/-4------|
G|----0-0x---4-4x---0---|    |-----x---x------|
D|----4-4x---0-0x---0---|x2  |-----x---x------|
A|----4-4x---0-0x---4---|    |-----4-/-3------|
E|----0-0x---4-4x---5---|    |----------------|
                  S              S   S

So I'll say (say) you'll be missed when you're away
And my feelings stay the same
Will you listen when I say
Will you stay (stay) holding hands for one more day
When the weekend fades away
I will love you just the same... always


[Bridge/Outro]

(3:14)

e|---4---5---5------0--0--0--------4---5---5------0--0--0---|  |--4--0--0---|
B|---5---5---5------5--5--5--------5---5---5------5--5--5---|  |--5--5--5---|
G|---4---0---0------0--4--0--------4---0---0------0--4--0---|  |--0--4--0---|
D|---0---4---0------4--0--0--------0---4---0------4--0--0---|  |--4--0--0---|x3
A|---0---5---4------4--0--4--------0---5---4------4--0--4---|  |--4--0--4---|
E|---0-------5------0--4--5--------0-------5------0--4--5---|  |--0--4--5---|
     S   S   S      S  S  S        S   S   S      S  S  S         S  S  S(~ on last chord)

e|-------------------------------|  |---5~---|
B|-------------------------------|  |---5~---|
G|-------------------------------|  |---0~---|
D|-------4------0------0-----0---|x4|---0~---|
A|-----4------0------4-----4-----|  |---4~---|
E|---0------4------5-----5-------|  |---5~---|
                                     
What I wanted to say
Never came out the way I wanted it to
I wanted you

And It's so fun to believe
In everything
When I'm around you
I wanted you, I wanted you, I wanted you, I wanted you

We've been looking for the answers
Standing on the edge of town
And the hope that I've been looking for
In you it can be found



************************************

| x  Dead note
| /  Slide up
| ~  Vibrato

************************************

            
            
Suggest correction
Creating personal tab
Creating personal tab
You can edit any tab online and save it as your Personal.

You can edit, replace or remove any tab part or add personal notes – all changes will be seen only by you.

Personal tabs can be accessed anytime from any device, even offline.
Learn more »
Give kudos to tab author, rate the tab!
1 2 3 4 5
comments
print report bad tab
guest
You may want to rate the tab now too:
select rating
Wanna post a correction for this tab? Suggest correction