Oops, an error
Loading. Please wait.

Beating Heart Baby bass

version 2
version 2

Whole song

Interactive

2,563 views 1 this week
2 commentsread comments
1 2 3 4 5
x 3
add to favorites
×
Save as Personal and add changes to this tab that will be seen only by you. Learn more ›
×
You can save this tab as Personal to edit and correct it or add notes. All changes will be seen only by you. Learn more »
launch autoscroll
font size
0
reset
guitar tuner
edit
Autoscroll
slow
fast
+/-
esc
set tempo
stop
Author
-------------------------------------------------------------------------------
BEATING HEART BABY – Head Automatica
-------------------------------------------------------------------------------

Tabbed By : Oddbodd
e-mail: 

Tuning: EADG

Keyboard on intro-no bass

Drum fill

Verse:
G|---------------------------------------------------------------------------|
D|---------------------------------------------------------------------------|
A|--3-3-x-x—3-3-3-3-3-3-x------4-6—-6-6-----6-6-6-6-6-6-x-------2-3----------|
E|-------------------------3-5----------x—x-----------------5-7--------------|X2
						  |^^^^^^^|leave this bit out 	
							  every second time
Then small a drum fill

Verse X2

Chorus
G|---------------------------------------------------------------------------|
D|------------------------------10-8-----------------------------------------|
A|----------------------------------10-8-------------------------------------|
E|-4444444444444444\888888888888--------6666666666666666/4444444433333333----|X2

Verse X2

Chorus

Then after the chorus comes the Bridge

Bridge:
G|---------------------------------------------------------------------------|
D|---------------------------------------------------------------------------|
A|---------------------------------------------------------------------------|
E|-8~~~~----6~~~~----4~~~~----3~~~~------------------------------------------|

G|---------------------------------------------------------------------------|
D|---------------------------------------------------------------------------|
A|---------------------------------------------------------------------------|
E|-8888888888888888-6666666666666666-4444444444444444-3333333333333333-------|
Play this softly

After the Bridge comes a modified chorus:
G|---------------------------------------------------------------------------|
D|---------------------------------------------------------------------------|
A|----xxxxxxxxxxxxxx-66xxxxxxxxxxxxxx-33xxxxxxxxxxxxxx-66xxxxxxxxxxxxxx------|
E|-88------------------------------------------------------------------------|

Play the normal chorus once, then comes the key change

Key Change:
G|---------------------------------------------------------------------------|
D|-----------------------------------------12-10-----------------------------|
A|----------------------------------------------12-10------------------------|
E|-666666666666666\101010101010101010101010----------8888888888888888--------|

G|---------------------------------------------------------------------------|
D|---------------------------------------------------------------------------|
A|---------------------------------------------------------------------------|
E|-66666666/55555555----------------10/////0---------------------------------|
Play up to here twice^	       |^^^^^^^|
Then on the second time end with this

End


| /  slide up
| \  slide down
| h  hammer-on
| p  pull-off
| ~  vibrato
| +  harmonic
| x  Mute note
===============================================================================


            
            
Suggest correction
Creating personal tab
Creating personal tab
You can edit any tab online and save it as your Personal.

You can edit, replace or remove any tab part or add personal notes – all changes will be seen only by you.

Personal tabs can be accessed anytime from any device, even offline.
Learn more »
Give kudos to tab author, rate the tab!
1 2 3 4 5
comments
print report bad tab
2 comments total.
0 reply
zuthi 148 Jan 20, 2009 12:17 PM

good tab, but the key change is only a semi-tone. Not a tone. (it sounds like) Play on frets; 5th to 9th, 7th, 5th, 4th.

Other than that, ace tab ^^

0 reply
ivesz1 51 Jan 17, 2010 01:44 AM

you overtuned on the last chorus,

G|---------------------------------------------------------------------------|
D|-----------------------------------------11-9------------------------------|
A|----------------------------------------------11-9-------------------------|
E|-555555555555555\999999999999----------------------7777777777777777--------|

G|---------------------------------------------------------------------------|
D|---------------------------------------------------------------------------|
A|---------------------------------------------------------------------------|
E|-55555555/44444444----------------9//////0---------------------------------|

guest
You may want to rate the tab now too:
select rating
Wanna post a correction for this tab? Suggest correction