Oops, an error
Loading. Please wait.

Laughing At You bass

version 2
version 2

Whole song

Interactive

289 views 1 this week
1 commentread comment
1 2 3 4 5
x 3
add to favorites
×
Save as Personal and add changes to this tab that will be seen only by you. Learn more ›
×
You can save this tab as Personal to edit and correct it or add notes. All changes will be seen only by you. Learn more »
launch autoscroll
font size
0
reset
guitar tuner
edit
Autoscroll
slow
fast
+/-
esc
set tempo
stop
Difficulty
Verse
g ---------------------------------------------------------------------------|
d ---------------------------------------------------------------------------|
a 2-00-----2-00------55555----2-00-----2-2-5-5-7-9-5-2-2-5-77777777-99999999-|
e -----2233----22-33------2233----22-33--------------------------------------|

Chorus
g ----------------------------------------------------------------------|
d ----------------------------------------------------------------------|
a 22222222-55555555-0-00-00-00-0-22222222-55555555-0-00-00-0------------|
e ----------------------------------------------------------3035--------|

End Chorus
g -------------------------|
d -------------------------|
a 77777777-1010101010101010
e -------------------------

Verse
g --------------------------------------------------------------------|
d --------------------------------------------------------------------|
a 2-00-----2-00------55555\----2-00------2-2-5-5-7-9-5-2-2-5----------|
e -----2233-----22-33------2233-----22-33-----------------------------|

End Chorus

Chorus # 2
g ----------------------------------------------------------------|
d ----------------------------------------------------------------|  X4
a 22222222-55555555-0-00-00-00-0-22222222-55555555-0-00-00-00-0---|
e ----------------------------------------------------------------|

Bridge
g --------------------------------------------------------------------|
d --------------------------------------------------------------------|
a 77777777-1010101010-7978-77777777-1010101010-7978-77777777-10101010-|12121212
e --------------------------------------------------------------------|

Chorus X2

Chorus #3
g --------------------------------------------------------------------------|
d --------------------------------------------------------------------------|
a -----2---2-22222222-55555555-0-00-00-00-0-22222222-55555555-0-00-00-0-----|
e 3035--2/5------------------------------------------------------------3035-|

End Chorus

End Chorus #2
g ------------------------|
d ------------------------|    X4
a 2-2-5-5-7-9-5-2-2-5-----|
e ------------------------|

Outro
g -----------------------------------------------|
d -----------------------------------------------|
a 2-00-------22-00-------22-00------22-00--------|
e -----22-33-------22-33-------22-33------22-2-3-|

This is 100 % correct, I got it from some live videos.

            
            
Suggest correction
Creating personal tab
Creating personal tab
You can edit any tab online and save it as your Personal.

You can edit, replace or remove any tab part or add personal notes – all changes will be seen only by you.

Personal tabs can be accessed anytime from any device, even offline.
Learn more »
Give kudos to tab author, rate the tab!
1 2 3 4 5
comments
print report bad tab
1 comment total.
0 reply
LCAY124 178 Jun 22, 2007 02:28 PM

just to let everbody know i tabbed this, LCAY124, the verses are missing some notes, bit overrall right.

guest
Wanna post a correction for this tab? Suggest correction