Oops, an error
Loading. Please wait.

Lying Through Your Teeth bass

960 views 1 this week
2 commentsread comments
1 2 3 4 5
1 last vote to show rating
add to favorites
×
Save as Personal and add changes to this tab that will be seen only by you. Learn more ›
×
You can save this tab as Personal to edit and correct it or add notes. All changes will be seen only by you. Learn more »
launch autoscroll
font size
0
reset
guitar tuner
edit
Autoscroll
slow
fast
+/-
esc
set tempo
stop
Author
Difficulty
Intro
g ---------------------------------|
d ---------------------------------|   X2
a 00-5-0-------0-55-7-5-------7----|
e ---------------------------------|

g --------------|
d --------------|
a 057~-777777775
e --------------

Verse
g ----------------------------------|
d ----------------------------------|   X2
a 0000000000000000-55555555-77777777
e ----------------------------------

g ------------------------------|
d ------------------------------|
a 0-0-----------55555-9-77777-7-|
e ---4-4-2-2-0-0----------------|

First part of Verse

Pre Chorus
g ------------------------------------------------------------------------|
d ------------------------------------------------------------------------|
a 55555555-77777777-1212121212121212-99999999-77777777-55555555-000000000-|
e ------------------------------------------------------------------------|

Chorus
g ---------------------------------|
d ---------------------------------|   X2
a 00-5-0-------0-55-7-0-------7----|
e ---------------------------------|

Post Chorus
g ---------------|
d ---------------|
a -----7-7777777-|
e ---------------|

Verse

Prechorus

Chorus

Guitar solo
g --------------------------------------------------|
d --------------------------------------------------|
a 0-05-57-79-97-75-50-50505-0-05-57-79-799-755-7575-|
e --------------------------------------------------|

Chorus
g ----------------------------------|
d ----------------------------------|   X2
a 0000000000000000-55555555-77777777
e ----------------------------------

g -----------------------------------|
d -----------------------------------|
a 0-0-----------55555-99-77777777-99-|
e ---4-4-2-2-0-0---------------------|

g ----------------------------------|
d ----------------------------------|
a 0000000000000000-55555555-77777777
e ----------------------------------

Pre Chorus

Outro
g ---------------------------------|
d ---------------------------------|   X3
a 00-5-0-------0-55-7-5-------7----|
e ---------------------------------|

g ----------------------|
d ----------------------|
a 00-5-0-------0-55-7-5-|
e ----------------------|

This i know iss 100 % except for the solo, that should be.

            
            
Suggest correction
Creating personal tab
Creating personal tab
You can edit any tab online and save it as your Personal.

You can edit, replace or remove any tab part or add personal notes – all changes will be seen only by you.

Personal tabs can be accessed anytime from any device, even offline.
Learn more »
Give kudos to tab author, rate the tab!
1 2 3 4 5
comments
print report bad tab
2 comments total.
0 reply
kattipus 342 Oct 17, 2009 08:28 AM

Sounds great, would help if there were some lyrics too, as i got as bit confused.

0 reply
kattipus 342 Oct 17, 2009 08:31 AM

And, why put it mostly on A-string? at some points it would be easier to go up to D.

guest
You may want to rate the tab now too:
select rating
Wanna post a correction for this tab? Suggest correction