Oops, an error
Loading. Please wait.

Blonde And Blue tab

version 2
version 2

Whole song

1,417 views 1 this week
1 commentread comment
1 2 3 4 5
2 more votes to show rating
add to favorites
×
Save as Personal and add changes to this tab that will be seen only by you. Learn more ›
×
You can save this tab as Personal to edit and correct it or add notes. All changes will be seen only by you. Learn more »
launch autoscroll
font size
0
reset
how to read this tab
guitar tuner
edit
Autoscroll
slow
fast
+/-
esc
set tempo
stop
Artist: Headstones
Song: Blonde & Blue
Album: Nickels for your Nightmares

Tabbed by: Andrew Afan [atamize@hotmail.com]

Note: The lyrics aren't perfect because I had to get them by ear,
but they're close enough. For parts that use Gm/D, it's also
possible to play it as G, but it doesn't sound as good.

Standard E Tuning

Chords:
-------
      EADGBE
D     x00232
Gm/D  000333
G     320033
A     x02220
Em    022000

Intro:
------

E|--------------------------|
B|--10--10--8--7--8--10--8--|
G|--------------------------|
D|--------------------------|
A|--------------------------|
E|--------------------------|

Verse 1:
--------
              D             Gm/D                          D                 Gm/D
She makes me crazy, doesn't have a vicious bone in her body, well ain't it tasteful
              D            Gm/D                     D           Gm/D          G
She says she hates me, and later on she says she's sorry, she's sorry

Prechorus:
----------
G            A                              G
Thinking of these things [hold him down]
             A                     Em
Holding him down, pulling off his wings
             A                              Em
Thinking of these things [hold him down]
             A                     D
Holding him down, pulling off his wings

Chorus:
-------

 D         A          G
Blonde and blue
                D       G
Troubled and misused
               D
Living without you
              A       G
My heart is yours
               D        G
Nothing lasts forever
                   D       G
We'll always be together
                      D
When nothing lasts forever
              A
My heart is yours

Play this at the end of the first chorus:

Riff 1:

    D            Gm/D       D             Gm/D
E|-----------------------|-------------------------------|
B|--10--10--8--7--8--10--|--10--10--8--7--8--10--8--7----|
G|-----------------------|----------------------------7--|
D|-----------------------|-------------------------------|
A|-----------------------|-------------------------------|
E|-----------------------|-------------------------------|  Go to Verse 2

Verse 2:
--------
            D           Gm/D                        D           Gm/D
It's armor-plated, you hooked up your heart and defied it
                D       Gm/D                D                 Gm/D          G
Now if you're hated, you do so much to overwrite it, yeah overwrite it

Prechorus:
----------
G            A                              G
Thinking of these things [hold him down]
             A                     Em
Holding him down, pulling off his wings
             A                              Em
Thinking of these things [hold him down]
             A                   D
Holding me down, pulling off my wings

[To Chorus]

Add this part to the riff after the first chorus:

Riff 2:

    D        Gm/D        D          A          D
E|--------------------------|---------------------|
B|--10--8--7--8--10--9\7----|---------------------|
G|-----------------------7--|--7-7--9--9/11\9--7--|
D|--------------------------|---------------------|
A|--------------------------|---------------------|
E|--------------------------|---------------------|  Go to Chorus

Ending: [after the last "My heart is yours"]
-------
             D      Gm/D
My heart is yours       [x2]
             D
My heart is yours
             A
My heart is yours     [end with Riff 1]

            
            
Suggest correction
Creating personal tab
Creating personal tab
You can edit any tab online and save it as your Personal.

You can edit, replace or remove any tab part or add personal notes – all changes will be seen only by you.

Personal tabs can be accessed anytime from any device, even offline.
Learn more »
Give kudos to tab author, rate the tab!
1 2 3 4 5
comments
print report bad tab
1 comment total.
0 reply
copperhead666 365 Aug 16, 2007 06:15 PM

i think the intro should be

e|------------------------|
b|------------------------|
g|-14---14-12-11-12-14-12-|
d|-0----0--0--0--0--0--0--|
a|------------------------|
E|------------------------|

guest
Wanna post a correction for this tab? Suggest correction