Oops, an error
Loading. Please wait.

Tweeter And The Monkey Man tab

286 views 9 this week
no commentswrite comment
1 2 3 4 5
1 last vote to show rating
add to favorites
×
Save as Personal and add changes to this tab that will be seen only by you. Learn more ›
×
You can save this tab as Personal to edit and correct it or add notes. All changes will be seen only by you. Learn more »
launch autoscroll
font size
0
reset
how to read this tab
guitar tuner
edit
Autoscroll
slow
fast
+/-
esc
set tempo
stop
[Intro] 

(Down Up strum pattern)

e|-0-0-0-0-0-0-0-0-2-2-2-2-2-2-2-2-0-0-0-0-0-0-0-0-0-0-0-0-0-0-0-0-|
B|-0-0-0-0-0-0-0-0-3-3-3-3-3-3-3-3-2-2-2-2-2-2-2-2-0-0-0-0-0-0-0-0-|
G|-1-1-1-1-1-1-1-1-2-2-2-2-2-2-2-2-2-2-2-2-2-2-2-2-1-1-1-1-1-1-1-1-|
D|-2-2-2-2-2-2-2-2-0-0-0-0-0-0-0-0-2-2-2-2-2-2-2-2-2-2-2-2-2-2-2-2-|
A|-2-2-2-2-2-2-2-2-----------------0-0-0-0-0-0-0-0-2-2-2-2-2-2-2-2-|
E|-0-0-0-0-0-0-0-0---------------------------------0-0-0-0-0-0-0-0-|


[Verse]

e|-0-0-0-0-0-0-0-0-2-2-2-2-2-2-2-2-0-0-0-0-0-0-0-0-0-0-0-0-0-0-0-0-|
B|-0-0-0-0-0-0-0-0-3-3-3-3-3-3-3-3-2-2-2-2-2-2-2-2-0-0-0-0-0-0-0-0-|
G|-1-1-1-1-1-1-1-1-2-2-2-2-2-2-2-2-2-2-2-2-2-2-2-2-1-1-1-1-1-1-1-1-|
D|-2-2-2-2-2-2-2-2-0-0-0-0-0-0-0-0-2-2-2-2-2-2-2-2-2-2-2-2-2-2-2-2-|
A|-2-2-2-2-2-2-2-2-----------------0-0-0-0-0-0-0-0-2-2-2-2-2-2-2-2-|
E|-0-0-0-0-0-0-0-0---------------------------------0-0-0-0-0-0-0-0-|

e|-0-0-0-0-0-0-0-0-2-2-2-2-2-2-2-2-0-0-0-0-0-0-0-0-0-0-0-0-0-0-0-0-|
B|-0-0-0-0-0-0-0-0-3-3-3-3-3-3-3-3-2-2-2-2-2-2-2-2-0-0-0-0-0-0-0-0-|
G|-1-1-1-1-1-1-1-1-2-2-2-2-2-2-2-2-2-2-2-2-2-2-2-2-1-1-1-1-1-1-1-1-|
D|-2-2-2-2-2-2-2-2-0-0-0-0-0-0-0-0-2-2-2-2-2-2-2-2-2-2-2-2-2-2-2-2-|
A|-2-2-2-2-2-2-2-2-----------------0-0-0-0-0-0-0-0-2-2-2-2-2-2-2-2-|
E|-0-0-0-0-0-0-0-0---------------------------------0-0-0-0-0-0-0-0-|

e|-----------------------------------------------------------------|
B|-----------------------------------------------------------------|
G|-9-9-9-9-9-9-9-9-7-7-7-7-7-7-7-7-2-2-2-2-2-2-2-2-9-9-9-9-9-9-9-9-|
D|-9-9-9-9-9-9-9-9-7-7-7-7-7-7-7-7-2-2-2-2-2-2-2-2-9-9-9-9-9-9-9-9-|
A|-7-7-7-7-7-7-7-7-5-5-5-5-5-5-5-5-0-0-0-0-0-0-0-0-7-7-7-7-7-7-7-7-|
E|-----------------------------------------------------------------|

e|-----------------------------------------------------------------|
B|-----------------------------------------------------------------|
G|-9-9-9-9-9-9-9-9-7-7-7-7-7-7-7-7-2-2-2-2-2-2-2-2-----------------|
D|-9-9-9-9-9-9-9-9-7-7-7-7-7-7-7-7-2-2-2-2-2-2-2-2-2-2-2-2-2-2-2-2-|
A|-7-7-7-7-7-7-7-7-5-5-5-5-5-5-5-5-0-0-0-0-0-0-0-0-2-2-2-2-2-2-2-2-|
E|-------------------------------------------------0-0-0-0-0-0-0-0-|


[Chorus]

e|---------------0~-----0-0-0-2~-2~-2-2-2-2~----2-2-2-2-2-2-0-0-0-0-0-0-0-0-0-0-0-0-0-0-0-0-|
B|---------------0~-----0-0-0-3~-3~-3-3-3-3~----3-3-3-3-3-3-2-2-2-2-2-2-2-2-0-0-0-0-0-0-0-0-|
G|-9~--9~--9-9-9-1~-----1-1-1-2~-2~-2-2-2-2~----2-2-2-2-2-2-2-2-2-2-2-2-2-2-1-1-1-1-1-1-1-1-|
D|-9~--9~--9-9-9-2~-----2-2-2-0~-0~-0-0-0-0~----0-0-0-0-0-0-2-2-2-2-2-2-2-2-2-2-2-2-2-2-2-2-|
A|-7~--7~--7-7-7-2~-----2-2-2-------------------------------0-0-0-0-0-0-0-0-2-2-2-2-2-2-2-2-|
E|---------------0~-----0-0-0-----------------------------------------------0-0-0-0-0-0-0-0-|


[Post Chorus] 

(Just lightly touch the string on the slide, don't actually fret it. Keep strumming the string though.)

e|-----------------------------------------------------------------|
B|-----------------------------------------------------------------|
G|-9-9-9-9-9-9-9-9-9-9-9-9-9-9-9-9-9-9-9-9-9-9-9-9-----------------|
D|-9-9-9-9-9-9-9-9-9-9-9-9-9-9-9-9-9-9-9-9-9-9-9-9-----------------|
A|-7-7-7-7-7-7-7-7-7-7-7-7-7-7-7-7-7-7-7-7-7-7-7-7-----------------|
E|-------------------------------------------------0-/-/-/-/-/-/-7-|


[Verse] 


      pm.............     ...............     ................    ................
e|--------------------------------------------------------------------------------|
B|--------------------------------------------------------------------------------|
G|-9~-----------------7~------------------2~------------------9~------------------|
D|-9~-9-9-9--9-9--9-9-7~--7-7-7--7-7--7-7-2~--2-2-2--2-2--2-2-9~--9-9-9--9-9--9-9-|
A|-7~-7-7-7--7-7--7-7-5~--5-5-5--5-5--5-5-0~--0-0-0--0-0--0-0-7~--7-7-7--7-7--7-7-|
E|--------------------------------------------------------------------------------|

      ...............     ...............     ...............    .................
e|--------------------------------------------------------------------------------|
B|--------------------------------------------------------------------------------|
G|-9~-----------------7~------------------2~------------------9~------------------|
D|-9~-9-9-9--9-9--9-9-7~--7-7-7--7-7--7-7-2~--2-2-2--2-2--2-2-9~--9-9-9--9-9--9-9-|
A|-7~-7-7-7--7-7--7-7-5~--5-5-5--5-5--5-5-0~--0-0-0--0-0--0-0-7~--7-7-7--7-7--7-7-|
E|--------------------------------------------------------------------------------|

e|-----------------------------------------------------------------|
B|-----------------------------------------------------------------|
G|-9-9-9-9-9-9-9-9-7-7-7-7-7-7-7-7-2-2-2-2-2-2-2-2-9-9-9-9-9-9-9-9-|
D|-9-9-9-9-9-9-9-9-7-7-7-7-7-7-7-7-2-2-2-2-2-2-2-2-9-9-9-9-9-9-9-9-|
A|-7-7-7-7-7-7-7-7-5-5-5-5-5-5-5-5-0-0-0-0-0-0-0-0-7-7-7-7-7-7-7-7-|
E|-----------------------------------------------------------------|

e|-----------------------------------------------------------------|
B|-----------------------------------------------------------------|
G|-9-9-9-9-9-9-9-9-7-7-7-7-7-7-7-7-2-2-2-2-2-2-2-2-----------------|
D|-9-9-9-9-9-9-9-9-7-7-7-7-7-7-7-7-2-2-2-2-2-2-2-2-2-2-2-2-2-2-2-2-|
A|-7-7-7-7-7-7-7-7-5-5-5-5-5-5-5-5-0-0-0-0-0-0-0-0-2-2-2-2-2-2-2-2-|
E|-------------------------------------------------0-0-0-0-0-0-0-0-|


[Chorus]

e|---------------0~-----0-0-0-2~-2~-2-2-2-2~----2-2-2-2-2-2-0-0-0-0-0-0-0-0-0-0-0-0-0-0-0-0-|
B|---------------0~-----0-0-0-3~-3~-3-3-3-3~----3-3-3-3-3-3-2-2-2-2-2-2-2-2-0-0-0-0-0-0-0-0-|
G|-9~--9~--9-9-9-1~-----1-1-1-2~-2~-2-2-2-2~----2-2-2-2-2-2-2-2-2-2-2-2-2-2-1-1-1-1-1-1-1-1-|
D|-9~--9~--9-9-9-2~-----2-2-2-0~-0~-0-0-0-0~----0-0-0-0-0-0-2-2-2-2-2-2-2-2-2-2-2-2-2-2-2-2-|
A|-7~--7~--7-7-7-2~-----2-2-2-------------------------------0-0-0-0-0-0-0-0-2-2-2-2-2-2-2-2-|
E|---------------0~-----0-0-0-----------------------------------------------0-0-0-0-0-0-0-0-|


[Post Chorus] 

                    pm.................................................
e|---------------------------------------------------------------------|
B|---------------------------------------------------------------------|
G|---------------------------------------------------------------------|
D|--------5^--------9-9-9-9-9-9-9-9-9-9-9-9-9-9-9-9-9-9-9-9-9-9-9--9-9-|
A|----5-7---7-5-7~--7-7-7-7-7-7-7-7-7-7-7-7-7-7-7-7-7-7-7-7-7-7-7--7-7-|
E|0/7------------------------------------------------------------------|


[Verse] 

      pm.............    ................   .................   ..................
e|--------------------------------------------------------------------------------|
B|--------------------------------------------------------------------------------|
G|-9~-----------------7~------------------2~------------------9~------------------|
D|-9~-9-9-9--9-9--9-9-7~--7-7-7--7-7--7-7-2~--2-2-2--2-2--2-2-9~--9-9-9--9-9--9-9-|
A|-7~-7-7-7--7-7--7-7-5~--5-5-5--5-5--5-5-0~--0-0-0--0-0--0-0-7~--7-7-7--7-7--7-7-|
E|--------------------------------------------------------------------------------|

     pm..............   .................   .................   ..................
e|--------------------------------------------------------------------------------|
B|--------------------------------------------------------------------------------|
G|-9~-----------------7~------------------2~------------------9~------------------|
D|-9~-9-9-9--9-9--9-9-7~--5-5-5--5-5--5-5-2~--2-2-2--2-2--2-2-9~--9-9-9--9-9--9-9-|
A|-7~-7-7-7--7-7--7-7-5~--5-5-5--5-5--5-5-0~--0-0-0--0-0--0-0-7~--7-7-7--7-7--7-7-|
E|--------------------------------------------------------------------------------|

e|-----------------------------------------------------------------|
B|-----------------------------------------------------------------|
G|-9-9-9-9-9-9-9-9-7-7-7-7-7-7-7-7-2-2-2-2-2-2-2-2-9-9-9-9-9-9-9-9-|
D|-9-9-9-9-9-9-9-9-7-7-7-7-7-7-7-7-2-2-2-2-2-2-2-2-9-9-9-9-9-9-9-9-|
A|-7-7-7-7-7-7-7-7-5-5-5-5-5-5-5-5-0-0-0-0-0-0-0-0-7-7-7-7-7-7-7-7-|
E|-----------------------------------------------------------------|

e|-----------------------------------------------------------------|
B|-----------------------------------------------------------------|
G|-9-9-9-9-9-9-9-9-7-7-7-7-7-7-7-7-2-2-2-2-2-2-2-2-----------------|
D|-9-9-9-9-9-9-9-9-7-7-7-7-7-7-7-7-2-2-2-2-2-2-2-2-2-2-2-2-2-2-2-2-|
A|-7-7-7-7-7-7-7-7-5-5-5-5-5-5-5-5-0-0-0-0-0-0-0-0-2-2-2-2-2-2-2-2-|
E|-------------------------------------------------0-0-0-0-0-0-0-0-|


[Chorus]

e|---------------0~-----0-0-0-2~-2~-2-2-2-2~----2-2-2-2-2-2-0-0-0-0-0-0-0-0-0-0-0-0-0-0-0-0-|
B|---------------0~-----0-0-0-3~-3~-3-3-3-3~----3-3-3-3-3-3-2-2-2-2-2-2-2-2-0-0-0-0-0-0-0-0-|
G|-9~--9~--9-9-9-1~-----1-1-1-2~-2~-2-2-2-2~----2-2-2-2-2-2-2-2-2-2-2-2-2-2-1-1-1-1-1-1-1-1-|
D|-9~--9~--9-9-9-2~-----2-2-2-0~-0~-0-0-0-0~----0-0-0-0-0-0-2-2-2-2-2-2-2-2-2-2-2-2-2-2-2-2-|
A|-7~--7~--7-7-7-2~-----2-2-2-------------------------------0-0-0-0-0-0-0-0-2-2-2-2-2-2-2-2-|
E|---------------0~-----0-0-0-----------------------------------------------0-0-0-0-0-0-0-0-|


[Solo] 

e|-------------------------------------------------|
B|--------8-----------------------8----------------|
G|----7-9---7-9-7~------------7-9---7-9-7~---------|
D|-/9--------------7-7-5~--/9---------------7-7-5~-|
A|-----------------7-7-5~-------------------7-7-5~-|
E|-----------------5-5-3~-------------------5-5-3~-|

e|-------------------------------------------------------------|
B|--------8-10^-10p8---8~-(8)\----------------8----------------|
G|----7-9------------9--------------------7-9---7-9-7~---------|
D|-/9--------------------------7-7-5~--/9---------------7-7-5~-|
A|-----------------------------7-7-5~-------------------7-7-5~-|
E|-----------------------------5-5-3~-------------------5-5-3~-|


[Pre Verse]

(Again don't fret the slide but keep strumming the string.)

Guitar 1
   pm.............................................................
e|-----------------------------------------------------------------|
B|-----------------------------------------------------------------|
G|-9-9-9-9-9-9-9-9-9-9-9-9-9-9-9-9-9-9-9-9-9-9-9-9-9-9-9-9-9-9-9-9-|
D|-9-9-9-9-9-9-9-9-9-9-9-9-9-9-9-9-9-9-9-9-9-9-9-9-9-9-9-9-9-9-9-9-|
A|-7-7-7-7-7-7-7-7-7-7-7-7-7-7-7-7-7-7-7-7-7-7-7-7-7-7-7-7-7-7-7-7-|
E|-----------------------------------------------------------------|

Guitar 2
e|-----------------------------------------------------------------|
B|-----------------------------------------------------------------|
G|-9~-(9)\-9~-(9)\-9~-(9)\-9~-(9)\-9~-(9)\-9~-(9)\-----------------|
D|-----------------------------------------------------------------|
A|-----------------------------------------------------------------|
E|-------------------------------------------------0-/-/-/-/-/-/-7-|


[Verse] 

      pm.............   .................   .................   ..................
e|--------------------------------------------------------------------------------|
B|--------------------------------------------------------------------------------|
G|-9~-----------------7~------------------2~------------------9~------------------|
D|-9~-9-9-9--9-9--9-9-7~--7-7-7--7-7--7-7-2~--2-2-2--2-2--2-2-9~--9-9-9--9-9--9-9-|
A|-7~-7-7-7--7-7--7-7-5~--5-5-5--5-5--5-5-0~--0-0-0--0-0--0-0-7~--7-7-7--7-7--7-7-|
E|--------------------------------------------------------------------------------|

     pm.... .... .....   ....... .... .....   ....... .... .....   ....... .... ......
e|------------------------------------------------------------------------------------|
B|------------------------------------------------------------------------------------|
G|-9~------9----9------7~-------7----7------2~-------2----2------9~-------9----9------|
D|-9~-9--9-9--9-9--9-9-7~--7--7-7--7-7--7-7-2~--2--2-2--2-2--2-2-9~--9--9-9--9-9--9-9-|
A|-7~-7--7-7--7-7--7-7-5~--5--5-5--5-5--5-5-0~--0--0-0--0-0--0-0-7~--7--7-7--7-7--7-7-|
E|------------------------------------------------------------------------------------|

e|-----------------------------------------------------------------|
B|-----------------------------------------------------------------|
G|-9-9-9-9-9-9-9-9-7-7-7-7-7-7-7-7-2-2-2-2-2-2-2-2-9-9-9-9-9-9-9-9-|
D|-9-9-9-9-9-9-9-9-7-7-7-7-7-7-7-7-2-2-2-2-2-2-2-2-9-9-9-9-9-9-9-9-|
A|-7-7-7-7-7-7-7-7-5-5-5-5-5-5-5-5-0-0-0-0-0-0-0-0-7-7-7-7-7-7-7-7-|
E|-----------------------------------------------------------------|

e|-----------------------------------------------------------------|
B|-----------------------------------------------------------------|
G|-9-9-9-9-9-9-9-9-7-7-7-7-7-7-7-7-2-2-2-2-2-2-2-2-----------------|
D|-9-9-9-9-9-9-9-9-7-7-7-7-7-7-7-7-2-2-2-2-2-2-2-2-2-2-2-2-2-2-2-2-|
A|-7-7-7-7-7-7-7-7-5-5-5-5-5-5-5-5-0-0-0-0-0-0-0-0-2-2-2-2-2-2-2-2-|
E|-------------------------------------------------0-0-0-0-0-0-0-0-|


[Chorus]

e|---------------0~-----0-0-0-2~-2~-2-2-2-2~----2-2-2-2-2-2-0-0-0-0-0-0-0-0-0-0-0-0-0-0-0-0-|
B|---------------0~-----0-0-0-3~-3~-3-3-3-3~----3-3-3-3-3-3-2-2-2-2-2-2-2-2-0-0-0-0-0-0-0-0-|
G|-9~--9~--9-9-9-1~-----1-1-1-2~-2~-2-2-2-2~----2-2-2-2-2-2-2-2-2-2-2-2-2-2-1-1-1-1-1-1-1-1-|
D|-9~--9~--9-9-9-2~-----2-2-2-0~-0~-0-0-0-0~----0-0-0-0-0-0-2-2-2-2-2-2-2-2-2-2-2-2-2-2-2-2-|
A|-7~--7~--7-7-7-2~-----2-2-2-------------------------------0-0-0-0-0-0-0-0-2-2-2-2-2-2-2-2-|
E|---------------0~-----0-0-0-----------------------------------------------0-0-0-0-0-0-0-0-|


[Outro] 

e|-------------------------------------------------|
B|--------8-----------------------8----------------|
G|----7-9---7-9-7~------------7-9---7-9-7~---------|
D|-/9--------------7-7-5~--/9---------------7-7-5~-|
A|-----------------7-7-5~-------------------7-7-5~-|
E|-----------------5-5-3~-------------------5-5-3~-|

e|-------------------------------------------------------------|
B|--------8-10^-10p8---8~-(8)\----------------8----------------|
G|----7-9------------9--------------------7-9---7-9-7~---------|
D|-/9--------------------------7-7-5~--/9---------------7-7-5~-|
A|-----------------------------7-7-5~-------------------7-7-5~-|
E|-----------------------------5-5-3~-------------------5-5-3~-|


************************************
| ^   Micro bend
| /   Slide up
| ~   Let Ring
| pm  Palm Mute
| p   Pull Off
| \   Slide down
| ()  Held note
************************************

            
            
Suggest correction
Creating personal tab
Creating personal tab
You can edit any tab online and save it as your Personal.

You can edit, replace or remove any tab part or add personal notes – all changes will be seen only by you.

Personal tabs can be accessed anytime from any device, even offline.
Learn more »
Give kudos to tab author, rate the tab!
1 2 3 4 5
comments
print report bad tab
guest
You may want to rate the tab now too:
select rating
Wanna post a correction for this tab? Suggest correction