Oops, an error
Loading. Please wait.

Remind Me To Miss You tab

by Headway
31 views 1 this week
no commentswrite comment
1 2 3 4 5
3 more votes to show rating
add to favorites
×
Save as Personal and add changes to this tab that will be seen only by you. Learn more ›
×
You can save this tab as Personal to edit and correct it or add notes. All changes will be seen only by you. Learn more »
launch autoscroll
font size
0
reset
how to read this tab
guitar tuner
edit
Autoscroll
slow
fast
+/-
esc
set tempo
stop
Author
Difficulty
[Chords Used]
    E   C#m   Bsus4   Asus2   C#m*   Bsus4*   Asus2*   D#/Bsus4   
e|--0----0------0-------0------0-------0--------0----------0-----|
B|--0----0------0-------0------0-------0--------0----------0-----|
G|--9----6------4-------2------9-------9--------9----------8-----|
D|--9----6------4-------2------9-------9--------9----------9-----|
A|--7----4------2-------0------x-------x--------0----------6-----|
E|-----------------------------9-------7-------------------------|


[Intro]

Guitar 1:
    E                       C#m*                    Bsus4*                  Asus2*
    V     ^ V ^ V     ^ V ^ V     ^ V ^ V     ^ V ^ V     ^ V ^ V     ^ V ^ V     ^ V ^ V     ^ V ^
e|--------------0-----------------------0-----------------------0-----------------------0------------|
B|--------0-0-0-0-----0-0-0-------0-0-0-0-----0-0-0-------0-0-0-0-----0-0-0-------0-0-0-0-----0-0-0--|
G|--------9-9-9-9-----9-9-9-------9-9-9-9-----9-9-9-------9-9-9-9-----9-9-9-------9-9-9-9-----9-9-9--|  2x
D|--9-----9-9-9-9-----9-9-9-9-----9-9-9-9-----9-9-9-9-----9-9-9-9-----9-9-9-9-----9-9-9-9-----9-9-9--|
A|--7-----------------------x-----------------------x-----------------------0------------------------|
E|--------------------------9-----------------------7------------------------------------------------|

Guitar 2:
e|----0---0---0---0---0---0---0---0---0---0---0---0--|
B|--7---7---7---9---9---9---5---5---5---5---5---5----|
G|---------------------------------------------------|  3x
D|---------------------------------------------------|
A|---------------------------------------------------|
E|---------------------------------------------------|

e|----0---0---0---0---0---0-----|
B|--7---7---7---9---9---9---5~--|
G|------------------------------|
D|------------------------------|
A|------------------------------|
E|------------------------------|

Guitar 3:
e|-----------------------12--12--12--11--11--11-----------------------------------------------|
B|--------------9--9--9--------------------------------------9--9--9--12--12--12--10--10--10--|
G|--11--11--11-----------------------------------11--11--11-----------------------------------|
D|--------------------------------------------------------------------------------------------|
A|--------------------------------------------------------------------------------------------|
E|--------------------------------------------------------------------------------------------|

e|--9--9--9--------------12--12--12--11--11--11----------------------------|
B|-----------12--12--12--------------------------------------9--9--9-------|
G|-----------------------------------------------11--11--11-----------11~--|
D|-------------------------------------------------------------------------|
A|-------------------------------------------------------------------------|
E|-------------------------------------------------------------------------|


[Verse 1]

Guitar 1:
    E                       C#m*                    Bsus4*                  Asus2*
    V     ^ V ^ V     ^ V ^ V     ^ V ^ V     ^ V ^ V     ^ V ^ V     ^ V ^ V     ^ V ^ V     ^ V ^
e|--------------0-----------------------0-----------------------0-----------------------0------------|
B|--------0-0-0-0-----0-0-0-------0-0-0-0-----0-0-0-------0-0-0-0-----0-0-0-------0-0-0-0-----0-0-0--|
G|--------9-9-9-9-----9-9-9-------9-9-9-9-----9-9-9-------9-9-9-9-----9-9-9-------9-9-9-9-----9-9-9--|  4x
D|--9-----9-9-9-9-----9-9-9-9-----9-9-9-9-----9-9-9-9-----9-9-9-9-----9-9-9-9-----9-9-9-9-----9-9-9--|
A|--7-----------------------x-----------------------x-----------------------0------------------------|
E|--------------------------9-----------------------7------------------------------------------------|

    Asus2*
    V ^ V ^ V ^ V
e|--------------0~--|
B|--0-0-0-0-0-0-0~--|
G|--9-9-9-9-9-9-9~--|
D|--9-9-9-9-9-9-9~--|
A|--0---------------|
E|------------------|


[Chorus]

Guitar 1:  
    C#m         Bsus4       E           Asus2*
    V     ^ V ^ V     ^ V ^ V     ^ V ^ V     ^ V ^ 
e|--0-----0-0-0-0-----0-0-0-0-----0-0-0-0-----0-0-0--|
B|--0-----0-0-0-0-----0-0-0-0-----0-0-0-0-----0-0-0--|
G|--6-----6-6-6-4-----4-4-4-9-----9-9-9-9-----9-9-9--|  4x
D|--6-----------4-----------9-----------9------------|
A|--4-----------2-----------7-----------0------------|
E|---------------------------------------------------|

    Asus2*                              D#/Bsus4
    V     ^ V ^ V     ^ V ^ V     ^ V ^ V     ^ V ^ V     ^ V ^ V     ^ V ^ V   V ^ V ^
e|--0-----0-0-0-0-----0-0-0-0-----0-0-0-0-----0-0-0-0-----0-0-0-0-----0-0-0-0---0-0-0-0--|
B|--0-----0-0-0-0-----0-0-0-0-----0-0-0-0-----0-0-0-0-----0-0-0-0-----0-0-0-0---0-0-0-0--|
G|--9-----9-9-9-9-----9-9-9-9-----9-9-9-8-----8-8-8-8-----8-8-8-8-----8-8-8-8---8-8-8-8--|
D|--9-----------9-----------9-----------9-----------9-----------9-----------9---9--------|
A|--0-----------0-----------0-----------6-----------6-----------6-----------6---6--------|
E|---------------------------------------------------------------------------------------|

Guitar 2:
e|--0----------|             e|--0------|            e|--2------|
B|------4------|             B|----4----|            B|----5----|
G|----------4--|  15x, then  G|------4--|  8x, then  G|------4--|  8x
D|-------------|             D|---------|            D|---------|
A|-------------|             A|---------|            A|---------|
E|-------------|             E|---------|            E|---------|

Guitar 3:
e|--12---11-------|
B|------------12--|
G|----------------|  15x
D|----------------|
A|----------------|
E|----------------|


[Interlude]

Guitar 1:
    E                       C#m*                    Bsus4*                  Asus2*
    V     ^ V ^ V     ^ V ^ V     ^ V ^ V     ^ V ^ V     ^ V ^ V     ^ V ^ V     ^ V ^ V     ^ V ^
e|--------------0-----------------------0-----------------------0-----------------------0------------|
B|--------0-0-0-0-----0-0-0-------0-0-0-0-----0-0-0-------0-0-0-0-----0-0-0-------0-0-0-0-----0-0-0--|
G|--------9-9-9-9-----9-9-9-------9-9-9-9-----9-9-9-------9-9-9-9-----9-9-9-------9-9-9-9-----9-9-9--|
D|--9-----9-9-9-9-----9-9-9-9-----9-9-9-9-----9-9-9-9-----9-9-9-9-----9-9-9-9-----9-9-9-9-----9-9-9--|
A|--7-----------------------x-----------------------x-----------------------0------------------------|
E|--------------------------9-----------------------7------------------------------------------------|

Guitar 2:
e|----0---0---0---0---0---0---0---0---0---0---0---0--|
B|--7---7---7---9---9---9---5---5---5---5---5---5----|
G|---------------------------------------------------|  2x
D|---------------------------------------------------|
A|---------------------------------------------------|
E|---------------------------------------------------|

Guitar 3:
e|-----------------------12--12--12--11--11--11-----------------------------------------------|
B|--------------9--9--9--------------------------------------9--9--9--12--12--12--10--10--10--|
G|--11--11--11-----------------------------------11--11--11-----------------------------------|
D|--------------------------------------------------------------------------------------------|
A|--------------------------------------------------------------------------------------------|
E|--------------------------------------------------------------------------------------------|


[Verse 2]

Guitar 1:
    E                       C#m*                    Bsus4*                  Asus2*
    V     ^ V ^ V     ^ V ^ V     ^ V ^ V     ^ V ^ V     ^ V ^ V     ^ V ^ V     ^ V ^ V     ^ V ^
e|--------------0-----------------------0-----------------------0-----------------------0------------|
B|--------0-0-0-0-----0-0-0-------0-0-0-0-----0-0-0-------0-0-0-0-----0-0-0-------0-0-0-0-----0-0-0--|
G|--------9-9-9-9-----9-9-9-------9-9-9-9-----9-9-9-------9-9-9-9-----9-9-9-------9-9-9-9-----9-9-9--|  4x
D|--9-----9-9-9-9-----9-9-9-9-----9-9-9-9-----9-9-9-9-----9-9-9-9-----9-9-9-9-----9-9-9-9-----9-9-9--|
A|--7-----------------------x-----------------------x-----------------------0------------------------|
E|--------------------------9-----------------------7------------------------------------------------|

    Asus2*
    V ^ V ^ V ^ V     ^ V ^
e|--------------0------------|
B|--0-0-0-0-0-0-0-----0-0-0--|
G|--9-9-9-9-9-9-9-----9-9-9--|
D|--9-9-9-9-9-9-9-----9-9-9--|
A|--0------------------------|
E|---------------------------|

Guitar 2:
e|---------------------------------------------|
B|---------------------------------------------|
G|--9~---------9-9~-----------9~---------9-9~--|  4x
D|--9~---------9-9~-----------9~---------9-9~--|
A|--7~---------7---------------------------0~--|
E|---------------9~-----------7~---------7-----|

Guitar 3:
e|--------0--2--0-----------0--4--0-----------0--2--0-----------0--7-----0--|
B|-----0-----------0-----0-----------0-----0-----------0-----0--------7-----|
G|--------------------------------------------------------------------------|  4x
D|--2~----------------------------------------------------------------------|
A|--------------------4~----------------2~----------------0~----------------|
E|--------------------------------------------------------------------------|

e|--------0--7~--|
B|-----0---------|
G|---------------|
D|---------------|
A|--0~-----------|
E|---------------|


[Bridge]

Guitar 1:
    C#m                     Bsus4                   Asus2
    V     ^ V ^ V     ^ V ^ V     ^ V ^ V     ^ V ^ V     ^ V ^ V     ^ V ^ V     ^ V ^ V     ^ V ^
e|--------0-0-0-0-----0-0-0-------0-0-0-0-----0-0-0-------0-0-0-0-----0-0-0-------0-0-0-0-----0-0-0--|
B|--------0-0-0-0-----0-0-0-------0-0-0-0-----0-0-0-------0-0-0-0-----0-0-0-------0-0-0-0-----0-0-0--|
G|--6-----6-6-6-6-----6-6-6-4-----4-4-4-4-----4-4-4-2-----2-2-2-2-----2-2-2-2-----2-2-2-2-----2-2-2--|  2x
D|--6-----------6-----------4-----------4-----------2-----------2-----------2-----------2------------|
A|--4-----------------------2-----------------------0-----------------------0------------------------|
E|---------------------------------------------------------------------------------------------------|

    Asus2       Bsus4       C#m         D#/Bsus4    E                       D#/Bsus4
    V     ^ V ^ V     ^ V ^ V     ^ V ^ V     ^ V ^ V     ^ V ^ V     ^ V ^ V     ^ V ^ V     ^ V ^
e|--0-----0-0-0-0-----0-0-0-0-----0-0-0-0-----0-0-0-0-----0-0-0-0-----0-0-0-0-----0-0-0-0-----0-0-0--|
B|--0-----0-0-0-0-----0-0-0-0-----0-0-0-0-----0-0-0-0-----0-0-0-0-----0-0-0-0-----0-0-0-0-----0-0-0--|
G|--2-----2-2-2-4-----4-4-4-6-----6-6-6-8-----8-8-8-9-----9-9-9-9-----9-9-9-8-----8-8-8-8-----8-8-8--|
D|--2-----------4-----------6-----------9-----------9-----------9-----------9-----------9------------|
A|--0-----------2-----------4-----------6-----------7-----------7-----------6-----------6------------|
E|---------------------------------------------------------------------------------------------------|

Guitar 2 (come in near the end of the bridge):
e|--------------------------|
B|--------------------------|
G|--4~---6~---8~---9~---8~--|
D|--------------------------|
A|--------------------------|
E|--------------------------|

Guitar 3 (solo):
e|---------------------------------------------------------------------------9~--11~--12~--|
B|--5~---7--4~--/-12~--\-2~--/-12~--10~--9~---5~---7--4~---2-h-4--5~--/-12~----------------|
G|-----------------------------------------------------------------------------------------|
D|-----------------------------------------------------------------------------------------|
A|-----------------------------------------------------------------------------------------|
E|-----------------------------------------------------------------------------------------|


[Final Chorus]

    C#m         Bsus4       E           Asus2*
    V     ^ V ^ V     ^ V ^ V     ^ V ^ V     ^ V ^ 
e|--0-----0-0-0-0-----0-0-0-0-----0-0-0-0-----0-0-0--|
B|--0-----0-0-0-0-----0-0-0-0-----0-0-0-0-----0-0-0--|
G|--6-----6-6-6-4-----4-4-4-9-----9-9-9-9-----9-9-9--|  8x
D|--6-----------4-----------9-----------9------------|
A|--4-----------2-----------7-----------0------------|
E|---------------------------------------------------|

    Asus2*                              D#/Bsus4
    V     ^ V ^ V     ^ V ^ V     ^ V ^ V     ^ V ^ V     ^ V ^ V     ^ V ^ V   V ^ V ^
e|--0-----0-0-0-0-----0-0-0-0-----0-0-0-0-----0-0-0-0-----0-0-0-0-----0-0-0-0---0-0-0-0--|
B|--0-----0-0-0-0-----0-0-0-0-----0-0-0-0-----0-0-0-0-----0-0-0-0-----0-0-0-0---0-0-0-0--|
G|--9-----9-9-9-9-----9-9-9-9-----9-9-9-8-----8-8-8-8-----8-8-8-8-----8-8-8-8---8-8-8-8--|
D|--9-----------9-----------9-----------9-----------9-----------9-----------9---9--------|
A|--0-----------0-----------0-----------6-----------6-----------6-----------6---6--------|
E|---------------------------------------------------------------------------------------|

Guitar 2:
e|--0----------|             e|--0------|            e|--2------|
B|------4------|             B|----4----|            B|----5----|
G|----------4--|  27x, then  G|------4--|  8x, then  G|------4--|  8x
D|-------------|             D|---------|            D|---------|
A|-------------|             A|---------|            A|---------|
E|-------------|             E|---------|            E|---------|

Guitar 3:
e|--12---11-------|
B|------------12--|
G|----------------|  12x
D|----------------|
A|----------------|
E|----------------|

e|--12-12--11-11-------12-12-11-11-------12-12-11-11-------14-14-12-12--------|
B|---------------12-12-------------12-12-------------12-12-------------12-12--|
G|----------------------------------------------------------------------------|  3x
D|----------------------------------------------------------------------------|
A|----------------------------------------------------------------------------|
E|----------------------------------------------------------------------------|

e|--12-12--11-11-------12-12-11-11-------12-12-11-11---------|
B|---------------12-12-------------12-12-------------12-12~--|
G|-----------------------------------------------------------|
D|-----------------------------------------------------------|
A|-----------------------------------------------------------|
E|-----------------------------------------------------------|


[Outro]

Guitar 1:
    E
    V
e|--0~--|
B|--0~--|
G|--9~--|
D|--9~--|
A|--7~--|
E|------|

Guitar 2:
e|----0---0---0---0---0---0---0---0---0---0---0---0--|
B|--7---7---7---9---9---9---5---5---5---5---5---5----|
G|---------------------------------------------------|  3x
D|---------------------------------------------------|
A|---------------------------------------------------|
E|---------------------------------------------------|

e|----0---0---0---0---0---0-----|
B|--7---7---7---9---9---9---5~--|
G|------------------------------|
D|------------------------------|
A|------------------------------|
E|------------------------------|

Guitar 3:
e|-----------------------12--12--12--11--11--11-----------------------------------------------|
B|--------------9--9--9--------------------------------------9--9--9--12--12--12--10--10--10--|
G|--11--11--11-----------------------------------11--11--11-----------------------------------|
D|--------------------------------------------------------------------------------------------|
A|--------------------------------------------------------------------------------------------|
E|--------------------------------------------------------------------------------------------|

e|--9--9--9--------------12--12--12--11--11--11----------------------------|
B|-----------12--12--12--------------------------------------9--9--9-------|
G|-----------------------------------------------11--11--11-----------11~--|
D|-------------------------------------------------------------------------|
A|-------------------------------------------------------------------------|
E|-------------------------------------------------------------------------|


************************************
| V   Strum down
| ^   Strum up
| x   Mute note
| h   Hammer-on
| /   Slide up
| \   Slide down
| ~   Vibrato/Let it ring

************************************

            
            
Suggest correction
Creating personal tab
Creating personal tab
You can edit any tab online and save it as your Personal.

You can edit, replace or remove any tab part or add personal notes – all changes will be seen only by you.

Personal tabs can be accessed anytime from any device, even offline.
Learn more »
Give kudos to tab author, rate the tab!
1 2 3 4 5
comments
print report bad tab
guest
You may want to rate the tab now too:
select rating
Wanna post a correction for this tab? Suggest correction