Oops, an error
Loading. Please wait.

Alone Acoustic tab

version 2
version 2

Whole song

Interactive

by Heart
115,582 views 195 this week
4 commentsread comments
1 2 3 4 5
x 25
add to favorites
×
Save as Personal and add changes to this tab that will be seen only by you. Learn more ›
×
You can save this tab as Personal to edit and correct it or add notes. All changes will be seen only by you. Learn more »
launch autoscroll
font size
0
reset
how to read this tab
guitar tuner
backing track
0:00
0:00
edit
Autoscroll
slow
fast
+/-
esc
set tempo
stop
[Intro]

    Am        F        G      G        Am       F         G       E
e|----------------------------3---------------------------------------------|
B|--1---1----1---1p3--0---0---0------------1----------1------0--------0-----|
G|------2----2---2--------0---0-2-0------2---2------2----------0--1-2---(1)-|
D|----2---2----3--------------0-----3--2----------3--------0----------0-----|
A|--0-------------------2-----2--------0--------3-----------------2-3-------|
E|--------------------3-------3-----------------1--------3------------------|


[Verse]

Same as intro x2


[Bridge]
    F        C        F        C        F        C        F   G   C
e|--1-----1--0-----0--1-----1--0-----0--1-----1--0-----0--1---3---0---------|
B|------1--------1--------1--------1--------1--------1----1---0---1---------|
G|----2--------0--------2--------0--------2--------0------2---0---0---------|
D|--------------------------------------------------------3---0---2---------|
A|-----------3-----------------3-----------------3--------3---2---3---------|
E|--1-----------------1-----------------1-----------------1---3---0---------|


[Chorus]
    Dm         A#9    C       G                  F       A#9    C
e|--1p0--------1---1------0--------3---|      |------1------1----------0--|
B|--3---3------1-1---------------3-----|      |--------------------1---1--|
G|--------2----3--------0--------------| x3 + |----2------3------0---0----|x2
D|--0-------0--3---------------0-------|      |---------------------------|
A|-------------1------3----------------|      |--3------1------3----------|
E|---------------------------3---------|      |---------------------------|

============================================================================
CHORDS                                                                    2
============================================================================

   Am   C   F   G   E  Dm  A#9 
e|--0---0---1---3---0---1---1--|
B|--1---1---1---0---0---3---1--|
G|--2---0---2---0---1---2---3--|
D|--2---2---3---0---2---0---3--|
A|--0---3---3---2---2---x---1--|
E|--x---x---1---3---0---x---x--|

============================================================================
LYRICS                                                                    3
============================================================================


[Verse]

Am         F              G
I hear the ticking of the clock
G               Am               F    G E
I'm lying here, the room's pitch dark
Am         F              G
I wonder where you are tonight
G               Am        F    G E
No answer on the telephone
F                  C              F  C
And the night goes by so very slow
F                  C              F  C
Oh I hope that it won't end though
F G  C
Alone


[Chorus]

Dm     A#9    C         G        Dm
   Til now I always got by on my own
       A#9    C         G
   I never really cared until I met you
Dm     A#9    C         G
   And now it chills me to the bone
   F        A#9       C
   How do I get you alone
   F        A#9       C
   How do I get you alone



************************************

| x    Dead note
| (n)  Ghost note
| p    Pull-off

************************************

            
            
Suggest correction
Creating personal tab
Creating personal tab
You can edit any tab online and save it as your Personal.

You can edit, replace or remove any tab part or add personal notes – all changes will be seen only by you.

Personal tabs can be accessed anytime from any device, even offline.
Learn more »
comments
print report bad tab
4 comments total. Showing first comments.
+3 reply
dandanmat 10 Jan 16, 2008 04:35 AM

Intro:

Am          F         G
-------------------------------3---------------------------------
-1-----1----1---1h3---0-----0--0---------------------------------
-------2------2-----------0----0--2-0----------------------------
----2----2--3---3-------0------0------3--------------------------
-0-----------------------------2---------------------------------
----------------------3--------3---------------------------------

Am F G E
-----------------------------3------------------------------------
-----1------1---1--------0----------------------------------------
---2---2p0--------0h2----------0-----1\2\4/-----------------------
-2----------3-3-------3----0--------------------------------------
-0---------------------------2-------2\3\5/-----------------------
-------------------------3----------------------------------------


By Danilo Matsuoka

+9 reply
dmc_74_usa 80 Dec 29, 2008 03:02 PM

I believe the chorus should be Dm, A#, F, C. Not Dm, A#, C, G.

At least that's how I hear it.

0 reply
beng11 74 Feb 05, 2014 11:24 AM

I agree with dmc

guest
You may want to rate the tab now too:
select rating
Wanna post a correction for this tab? Suggest correction