Oops, an error
Loading. Please wait.
We have Chord Pro version of Barracuda.
It's the closest thing you can get to the original song and it has interactive parts. Check out the tab »
×
by Heart
37,991 views 3 this week
3 commentsread comments
1 2 3 4 5
x 12
add to favorites
×
Save as Personal and add changes to this tab that will be seen only by you. Learn more ›
×
You can save this tab as Personal to edit and correct it or add notes. All changes will be seen only by you. Learn more »
launch autoscroll
font size
0
reset
how to read this tab
guitar tuner
backing track
0:00
0:00
edit
Autoscroll
slow
fast
+/-
esc
set tempo
stop
Difficulty
intermediate
[---------------------------------------------5---------------------|
[---------------------------------------12----5---------------------|
[---------------------------------------12----3---------------------|
[-------------------------------------------------------------------|
[----2-222-222-222-222-222-222-22-4-5-------------------------------|
[----0-000-000-000-000-000-000-00-5-3-------------------12\---------|

[-------------0---------------------------------0-------------------|
[-------------0--------12-----------------------0----------0--------|
[-------------5--------12-----------------------5-------------------|
[----(5)------5---------------------(5)---------5-------------------|
[----(3)------3---------------------(3)---------3-------------------|

[-------------------------------------------------------------------|
[--------------0-----0-------------0---1----------------------------|
[-----------1-------------------1-------------------0---------------|
[----2--4----------------2--4--------------------2-----4--2---------|
[-------------------------------------------------------------------|
[-------------------------------------------------------------------|


[-------------------------------------------------------------------|
[-------------------------------------------------------------------|
[-------------------0--0--------------------------------------------|
[----2--2--0--0--0--------2--0--------------------------------------|
[-----------------------------------------------2--222-222-222-22---|
[-----------------------------------------------0--000-000-000-00---|

[-------------------------------------------------------------------|
[-------------0---------------0--1----------------------------------|
[----------1---------------1---------------0--------0---------0--0--|
[----2--4-----------2--4-----------------2--------2--------0--------|
[-------------------------------------------------------------------|
[-------------------------------------------------------------------|

            
            
Suggest correction
Creating personal tab
Creating personal tab
You can edit any tab online and save it as your Personal.

You can edit, replace or remove any tab part or add personal notes – all changes will be seen only by you.

Personal tabs can be accessed anytime from any device, even offline.
Learn more »
comments
print report bad tab
3 comments total.
+1 reply
Zapfire 600 Feb 20, 2008 07:34 AM

It would be nice if we knew what everything was here...

0 reply
TomMorelloJR 10 Jun 22, 2008 01:50 PM

dude... what is wrong with your heraing
the intro is:

A|-2-222--------------------
E|-0-000-000-000-000-002-3-5

0 reply
guitargurl4God 90 May 19, 2009 11:31 AM

dude maybe my guitars outta whack but this sounds like its in the wrong key

guest
Wanna post a correction for this tab? Suggest correction