Oops, an error
Loading. Please wait.
We have Chord Pro version of Crazy On You.
It's the closest thing you can get to the original song and it has interactive parts. Check out the tab »
×
by Heart
54,259 views 168 this week
17 commentsread comments
1 2 3 4 5
x 16
add to favorites
×
Save as Personal and add changes to this tab that will be seen only by you. Learn more ›
×
You can save this tab as Personal to edit and correct it or add notes. All changes will be seen only by you. Learn more »
launch autoscroll
font size
0
reset
how to read this tab
guitar tuner
backing track
0:00
0:00
edit
Autoscroll
slow
fast
+/-
esc
set tempo
stop
e|-------------------------|
B|----------3--1p0---------|
G|---2-/-4-----2p0--0------|
D|-------------------------|
A|-------------------------|
E|-------------------------|

e|--------------------------------------------------------------------|
B|---------3p1p0----1-------------------------------------------------|
G|---------------2-----2--------------0----------4-------5-\-0--------|
D|-----------------------------2-/-4-------------4-------5-\-0--------|
A|---0--0-----------0-----0--------------0---0-------0----------------|
E|--------------------------------------------------------------------|

e|--------------------------------------------------------------------|
B|---------3p1p0----1-------------------------------------------------|
G|---------------2-----2--------------0---------------2---------------|
D|-----------------------------2-/-4--------0------2------------------|
A|---0--0-----------0-----0--------------0------3--------2------------|
E|-----------------------------------------------------------0--------|

e|---------------------------------------------|
B|---------------------------------------------|
G|---/4-------2-------0h1--------4p2p0---------|
D|-------------------------------0-------------|
A|---/5-------4-------2----------X-------------|
E|--------0-------0---------0----3-------------|

e|--------------------------------------------------------------------|
B|---------3p1p0----1-------------------------------------------------|
G|---------------2-----2--------------0----------4-------5-\-0--------|
D|-----------------------------2-/-4-------------4-------5-\-0--------|
A|---0--0-----------0-----0--------------0---0-------0----------------|
E|--------------------------------------------------------------------|

e|----------------------------------------------------------------------|
B|---------3p1p0----1---------------------------------------3-----------|
G|---------------2-----2--------------0----------4------------------4---|
D|-----------------------------2-/-4-------------4---4------------------|
A|---0--0-----------0-----0--------------0---0-----------0------0-------|
E|----------------------------------------------------------------------|

e|------------5-------------------|
B|---5p3------------0---<12>------|
G|--------4---------0---<12>------|
D|------------------0---<12>------|
A|---0--------0-------------------|
E|--------------------------------|

e|--------------------------------------------------------------------|
B|---------3p1p0----1-------------------------------------------------|
G|---------------2-----2--------------0----------4-------5-\-0--------|
D|-----------------------------2-/-4-------------4-------5-\-0--------|
A|---0--0-----------0-----0--------------0---0-------0----------------|
E|--------------------------------------------------------------------|

e|-------------------------------------------------------------------|
B|---------3p1p0----1------------------------------------------------|
G|---------------2-----2--------------0------------------------------|
D|-----------------------------2-/-4---------0--------4--------2-----|
A|---0--0-----------0-----0--------------0-------0h5------0h3--------|
E|-------------------------------------------------------------------|

e|--------------------------------------0----------------------|
B|---------3p1p0----1----------------------3--1--0-------------|
G|---------------2-----2-----0-------0--------------2--0-------|
D|-----------------------------------------------------0-------|
A|---0--0-----------0-----0------------------------------------|
E|--------------------------------3----------------------------|

e|-------------------------------------------------0-----------------|
B|-----------3p1p0-----1-----------------------0-------0-------------|
G|---2-------------2-------2---------0h1---1-------1-------1---------|
D|---0---------------------0-------------------0-------0-------------|
A|-----------------------------------------2---------------2---------|
E|---2---2-------------2-------2-------0-----------------------------|

e|------------------------------------------------------------------|
B|---6------5h6p5p3-0------5--3-------------------------------------|
G|----------------------5--------5---4------------------------------|
D|---0-----------------------------------6--------------------------|
A|------------------------------------------------------------------|
E|-------------------------------------------0----------------------|

e|----------------------------------1-1-----------------------------|
B|--1-1-----------------------------1-1-----------------------------|
G|--2-2--- Strum Am a few times-----2-2-----------------------------| (x2)
D|--2-2-----------------------------3-3-----------------------------|
A|------------------------------------------------------------------|
E|------------------------------------------------------------------|

e|------------------------------------------------------------------|
B|------------------------------------------------------------------|
G|------------------------------------------------------------------|
D|--------2---0----------------------------2--0---------------------|
A|------0--------3---2---0--------------0--------3--2--0------------|
E|---0-----------------------1-------0--------------------1---------|

e|------------------------------------------------------------------|
B|------------------------------------------------------------------|
G|------------------------------------------------------------------|
D|----------2--0-------------------2--0-----------------------------|
A|-----0-----------3--2--0---------------3--2--0--------------------|
E|--0------------------------3----------------------1---------------|

       Am                  C
We may still have time, we might still get by
      Dm7                   E7
Every time I think about it I want to cry
     Am                           C
With bombs and the devils and the kids keep coming
  Dm7                      E7              Am Am D  Am Am D
Nowhere to breathe easy no time to be young
      F      G             C         F
But I tell myself that I'm doing all right
        Dm7                  E7
There's nothing left to do tonight


       Am       F
But go crazy on you
Am       F
Crazy on you
          Am             G          F
Let me go crazy crazy on you

   Am                         C
My love is the evening breeze touching your skin
    Dm7                     E7
The gentle sweet singing of leaves in the wind
    Am                       C
The whisper that calls after you in the night
    Dm7                    E7             Am Am D   Am Am D
And kisses your ear in the early light
    F                 G             C     F
And you don't need to wonder you're doing fine
Dm7                        E7
And my love the pleasure's mine


          Am       F
Let me go crazy on you
Am       F
Crazy on you
          Am             G          F         Am
Let me go crazy crazy on you

F#m7                Bm7
Wild man's world is crying in pain
C#m7                          D
What're you going to do - everbody's insane
C#m7                      D
So afraid of one who's so afraid of you
            C#m7         D
What're you going to do?
A
E    E/F#   E/G#   E/A


Am       F
Crazy on you
Am       F
Crazy on you
          Am             G          F
Let me go crazy crazy on you

Am                  C
I was a willow last night in my dream
  Dm7              E7
I bent down over a clear running stream
  Am                       C
I sang you a song that I heard up above
        Dm7                     E7
And you kept me alive with your sweet flowing love


Am       F
Crazy on you
Am       F
Crazy on you
          Am             G          F         Am
Let me go crazy crazy on you

Am       F
Crazy on you
Am       F
Crazy on you
          Am             G          F         Am
Let me go crazy crazy on you


Am    F     Am    F
Am    G     F     Am


F#m7  Bm7   C#m7  D
C#m7  D     C#m7  D
A
E    E/F#   E/G#   E/A


Am       F
Crazy on you
Am       F
Crazy on you
          Am             G          F
Let me go crazy crazy on you

e|---------------------------------------------------------------|
B|---------------------------------------------------------------|
G|---------------------------------------------4-----------------|
D|-------------2---------------------------4-6---7---------------|
A|---------2-4---5-----------------4---5-7-----------------------|
E|-2---4-5-------------------------------------------------------|

e|---------------------------------------------7-----------------|
B|-----------------------------------------7-9---10--------------|
G|---------6-7-9-7-----------------6---7-9-----------------------|
D|-6---7-9-------------------------------------------------------|
A|---------------------------------------------------------------|
E|---------------------------------------------------------------|

e|-------10----------------10------------------------------------|
B|-10/12----12\10----10/12----12\10------------------------------|
G|---------------------------------------------------------------|
D|---------------------------------------------------------------|
A|---------------------------------------------------------------|
E|---------------------------------------------------------------|


************************************

| p  Pull-off
| /  Slide up
| \  Slide down
| h  Hammer-on

************************************

            
            
Suggest correction
Creating personal tab
Creating personal tab
You can edit any tab online and save it as your Personal.

You can edit, replace or remove any tab part or add personal notes – all changes will be seen only by you.

Personal tabs can be accessed anytime from any device, even offline.
Learn more »
comments
print report bad tab
17 comments total. Showing first comments.
+2 reply
OJ Loaf 10 Dec 21, 2006 02:36 PM

Good tab, but im pretty sure the main riff goes like this:

E------------------------------------------------------------------|
B------------------------------------------------------------------|
G------------------------------------------------------------------|
D--------2---0----------------------------2--0---------------------|
A------0--------3---2---0--------------0--------3--2--0------------|
E---0-----------------------1-------3--------------------1---------|

E------------------------------------------------------------------|
B------------------------------------------------------------------|
G------------------------------------------------------------------|
D----------2--0-------------------2--0-----------------------------|
A-----0-----------3--2--0---------------3--2--0--------------------|
E--3------------------------3----------------------1---------------|

E------------------------------------------------------------------|
B------------------------------------------------------------------|
G------------------------------------------------------------------|
D---2--0-----------------------------------------------------------|
A---------3--2--0--------------------------------------------------|
E-------------------1----------------------------------------------|

0 reply
OJ Loaf 10 Dec 21, 2006 02:38 PM

Woops. Scratch the last note at the end

0 reply
Sarge999 10 Feb 16, 2007 06:40 PM

Your tab is correct, zeppelin, or atleast damn close.
OJLoaf, yours sounds wrong, sorry.

guest
You may want to rate the tab now too:
select rating
Wanna post a correction for this tab? Suggest correction