Oops, an error
Loading. Please wait.

Free Fallin tab

version 2
version 2

Whole song

10,227 views 1 this week
2 commentsread comments
1 2 3 4 5
x 5
add to favorites
×
Save as Personal and add changes to this tab that will be seen only by you. Learn more ›
×
You can save this tab as Personal to edit and correct it or add notes. All changes will be seen only by you. Learn more »
launch autoscroll
font size
0
reset
how to read this tab
guitar tuner
edit
Autoscroll
slow
fast
+/-
esc
set tempo
stop
name = Brian Burgess
email = bird_dawg11@yahoo.com
song = Free Fallin'
group = Tom Petty
Tom Petty and the Heartbreakers

Riff 1

E--5---6------6---5-------1--------------------------|
B--6---6------6---6-------1--------------------------|
G--5---5------5---5-------0--------------------------|
D----------------------------------------------------|
A----------------------------------------------------|
E----------------------------------------------------|

Riff 2(play before background vocals "Free fallin' well I'm free fallin'")

E-------------------------------|
B-------------------------------|
G-------------------------------|
D-------------------------------|
A-------------------------------|
E--5--5--3----1--3--1~----------|

Riff 3

E---------------------------------------------|
B---------------------------------------------|
G---------------------------------------------|
D---------------------------------------------|
A---------------------------------------------|
E--1-1-1/6-6-6-6-6-6-6\1-1-1/8-8-8-8-8-8------|

Enjoy!

Questions, comments, corrections send to bird_dawg11@yahoo.com

"...she kissed my third cousin twice..."  Tom Petty

            
            
Suggest correction
Creating personal tab
Creating personal tab
You can edit any tab online and save it as your Personal.

You can edit, replace or remove any tab part or add personal notes – all changes will be seen only by you.

Personal tabs can be accessed anytime from any device, even offline.
Learn more »
comments
print report bad tab
2 comments total.
-1 reply
Mike_0xbig18 355 Oct 21, 2004 08:00 PM

Good tab job. This sounds like one of tthe best tabs of this song.

0 reply
RANDUMB! 20 Feb 10, 2009 01:17 PM

i think that the last note of riff one is an a-chord at the fifth fret. Not sure of name. Looks like this:
E--5---6------6---5-------x--------------------------|
B--6---6------6---6-------5--------------------------|
G--5---5------5---5-------5--------------------------|
D-------------------------5--------------------------|
A----------------------------------------------------|
E----------------------------------------------------|

Other than that it seems perfect

guest
Wanna post a correction for this tab? Suggest correction