Oops, an error
Loading. Please wait.

Bible Black tab

version 2
version 2

Whole song

Interactive

1,931 views 1 this week
no commentswrite comment
1 2 3 4 5
2 more votes to show rating
add to favorites
×
Save as Personal and add changes to this tab that will be seen only by you. Learn more ›
×
You can save this tab as Personal to edit and correct it or add notes. All changes will be seen only by you. Learn more »
launch autoscroll
font size
0
reset
how to read this tab
guitar tuner
edit
Autoscroll
slow
fast
+/-
esc
set tempo
stop
Wrote this tab in honor of DIO (R.I.P)

Half Step Down

I Like to thank Hraesvelgre, and xHellbound for their tabs.


Acoustic Riff 1

|--------------------|-------------------|---------------------|-----------0---| X4
|--------------------|-------------------|---------------------|-----------0---|
|--------------------|----------2--------|---------------------|--------0--0---|
|------2---1---------|------2-5---4-0-4--|------5-------5------|------2----2---|
|----2---2---2-------|----2--------------|----5---5---5--------|----2------2---|
|--0-----------3-2~--|--0----------------|--3-------2-----2h3--|--0--------0---|


Acoustic Riff 2

|--------------------|--------------0-----|-----------------|-------------0-----|
|--------------------|----------------0---|-----------------|-------------0-----|
|--------------------|------------0-------|-----------------|----7--------0-----|
|---------5-------5--|----------2---------|---------5-------|-----------2-------|
|-------5-------5----|--------2-----------|-------5---------|--7-5----2---------|
|-0-2-3----/7-5------|--2h3-0-------------|-0-2-3-----/7-5--|-------0-----------|


Acoustic Riff 3
(He reached for a book all bound in leather...)
|--------------------|-------------------|-|
|--------------------|-------------------| |
|------9---10--7-10--|------9---10--/7~--| |
|----9---9---9-------|----9---9-----/5~--| |
|--7-----------------|--7----------------| |
|--------------------|-------------------| |
                                           |-x2
|--------------------|-------------------| |
|--------------------|-------------------| |
|------9---10--7-10--|------9---/7~------| |
|----9---9---9-------|----9-9---/5~------| |
|--7-----------------|--7----------------| |
|--------------------|-------------------|-|

Bridge W/ Distortion
(Don't go on put it back...)
|----------------------------|
|----------------------------|
|----------------------------|
|--9-9-9-9-9-9-9-------------|
|--7-7-7-7-7-7-7-7---7-------|
|--0-0-0-0-0-0-0---8~--7~6~--|

(BLACK!!! Black black black)
|--------------------|----------------------| x4
|--------------------|----------------------|
|--2----/8-7~--7-78--|--2----/8-7~----------|
|--2----/8-7~--7-78--|--2----/8-7~----------|
|--0----/6-5~--5-56--|--0----/6-5~----------|
|--------------------|-------------0-5b-2~--|

Verse
(What's this world I see...)
Riff 1
|------------------------|------------------------|-|
|------------------------|-------------------/5~--| |
|------------------------|-------------------/5~--| |
|------------------7987--|-------------------/5~--| |
|------------------5765--|------------------------| |
|--/5-5-5~-/5-5-/5-------|--/5-5-5~-/5-5-/5-0-----| |


Riff 2                                              | x2
|------------------------|------------------------| |
|------------------------|------------------------| |
|------------------------|------------------------| |
|------------------7987--|------------------57-5--| |
|------------------5765--|------------------35-3--| |
|--/5-5-5~-/5-5-/5-------|--/5-5-5~-/5-5-/5-------|-|

Verse 2
(Let me go I've seen religion...)
|--3--xx-3------xx--|--3--xx-3333333--|
|--3--xx-3------xx--|--3--xx-3333333--|
|--4--xx-4------xx--|--4--xx-4444444--|
|--5--xx-5------xx--|--5--xx-5555555--|
|--5--xx-5------xx--|--3--xx-5555555--|
|--3--xx-3------xx--|--3--xx-3333333--|

Play Riff 2 then continue to Verse 2 then play

|-------------------------|------------------------|
|-------------------------|------------------/5~---|
|-------------------------|------------------/5~---|
|-------------------------|------------------/5~---|
|------------------7-6-5--|------------------------|
|--/5-5-5~-/5-5-/5--------|--/5-5-5~-/5-5-/5-------|

|-------------------------|-------------------------|
|-------------------------|-------------------------|
|-------------------------|------------------5------|
|-------------------------|------------------5------|
|------------------7-6-5--|------------------3------|
|--/5-5-5~-/5-5-/5--------|--/5-5-5~-/5-5-/5--------|

Restart to Verse 1 Riff 1

(Solo) Will Be up Eventually. Working very hard on it.

Rhythm Behind the Solo

|-------------------------|-------------------------| x2
|-------------------------|------------------/7~----|
|-------------------------|------------------/7~----|
|-------------------------|------------------/7~----|
|------------------9-8-7--|-------------------------|
|--/7-7-7~-/7-7-/7--------|--/7-7-7~-/7-7-/7--------|

|------------------------|--------------------------| x2
|------------------------|--------------------------|
|------------------------|--------------------------|
|------------------------|--------------------------|
|------------------------|--------------------------|
|--/9-9-9~-/9-9~----9----|--/9-9-9~-/9-9~--9-10-12--|

|---------------| x4
|-----/5~-------|
|--7--/5~-7--4--|
|--7--/5~-7--4--|
|--5------5--2--|
|---------------|

|-------------------|-------------------| x2
|-------------------|-------------------|
|-------------------|-------------------|
|-------------------|-------------------|
|--7----7/8-8/10\5--|--7---7/8----8/10--|
|--0----------------|--0----------------|


After Solo
(He lock himself away and tastes the silence...)
|----------------------------------------------------------|  x4
|------------------------------------------/5------5~------|
|---9-----9-----10------10-----9-----9-----/5------5~------|
|---9-----9-----10------10-----9-----9-----/5------5~------|
|---7-----7-----8-------8------7-----7---------------------|
|---0-0-0---0-0----0-0-----0-0---0-0---0-0------------0-0--|

Bridge Revisited

|----------------------------|
|----------------------------|
|----------------------------|
|--9-9-9-9-9-9-9-------------|
|--7-7-7-7-7-7-7-7---7-------|
|--0-0-0-0-0-0-0---8~--7~6~--|

Outro Riff
(BLACK!!! Black black black)
|--------------------|-----------------------|
|--------------------|-----------------------|
|--2----/8-7~--7-78--|--2----/8-7~-----------|
|--2----/8-7~--7-78--|--2----/8-7~-----------|
|--0----/6-5~--5-56--|--0----/6-5~-----------|
|--------------------|-------------0-2-3-5~--|

|--------------------|-----------------------|
|--------------------|-----------------------|
|--2----/8-7~--7-75--|--2--------------------|
|--2----/8-7~--7-75--|--2--------------------|
|--0----/6-5~--5-53--|--0--------------------|

Solo are being worked on and will be edited in eventually.

Any suggestions to improve the tab will be greatly appreciated. 

E-Mail:NativeMbs89@yahoo.com

H&H and Sabbath Forever

            
            
Suggest correction
Creating personal tab
Creating personal tab
You can edit any tab online and save it as your Personal.

You can edit, replace or remove any tab part or add personal notes – all changes will be seen only by you.

Personal tabs can be accessed anytime from any device, even offline.
Learn more »
Give kudos to tab author, rate the tab!
1 2 3 4 5
comments
print report bad tab
guest
You may want to rate the tab now too:
select rating
Wanna post a correction for this tab? Suggest correction