Oops, an error
Loading. Please wait.

Double The Pain bass

2,437 views 1 this week
no commentswrite comment
1 2 3 4 5
x 3
add to favorites
×
Save as Personal and add changes to this tab that will be seen only by you. Learn more ›
×
You can save this tab as Personal to edit and correct it or add notes. All changes will be seen only by you. Learn more »
launch autoscroll
font size
0
reset
guitar tuner
edit
Autoscroll
slow
fast
+/-
esc
set tempo
stop
Song: Double The Pain
Band: Heaven & Hell
Tabbed by: unspeakable.elvis@gmail.com
Thanks to Cris Fuhrman (fuhrmanator@gmail.com) for correction to the pre-solo riff.

Tuning: Half step down (Low to high: Eb Ab Db Gb)

Legend:

.       palm mute
h       hammer on
p       pull off
/       slide up to note
\       slide down from note


Intro 
~~~~~

|-------------------------------------------------|
|-------------------------------------------------| Play
|----0--1-----------------3--1--------------------| x8
|-0--------2-----1--0-----------3--2-----1--0-----|


Verse (Play x4)
~~~~~
 "A stab in the back..."
|-------------------------------------------------|
|----------5-----------------5--------------------|
|-7--7--7-----7--7--7--7--7-----7-----1--1--0--1--|
|----------------------------------3--------------|

 "Is worth waiting for tonight..." etc.
|-------------------------------------------------|
|----------5-----------------5--------------------|
|-7--7--7-----7--7--7--7--7-----7-----------------|
|----------------------------------2--3--3--2--3--|


Bridge 1
~~~~~~~~
 "Thunder and lightning..."
|-------------------------------------------------|
|-------7-----7--5-------------/7-----7--5--------|
|-------------------7--5--------------------7--5--|
|-5-----------------------7-----------------------|

 "Electric machines..."
|-------------------------------------------------|
|-------------------------------------------5--7--|
|-3--3--3--3--3-----3--5--5--5--5--5--5--7--------|
|----------------5--------------------------------|

 "These are the devils..."
|-------------------------------------------------|
|-------------------------------------------------|
|----------------------------------------------3--|
|-5--5--5--5--5--3--5--7--7--7--5--5--5--3--5-----|

 "That shout in his dreams..."
|-------------------------------------------------|
|----------------------------------------5--7--5--|
|-3--3-----------------5--5--5--5--5-/7-----------|
|-------5--5--5--3--5-----------------------------|


|-------------------------------------------------|
|/3--------2--------------------------3-----2-----|
|-------------------5--------3--------------------|
|-------------------------------------------------|


Chorus
~~~~~~
 "Double the pain..."
|-------------------------------------------------|
|-------------------------------------------------|
|-------------5--7--7--7--7--7--7--7--7--7--7-----|
|-3--0--3--0-----------------------------------3--|

 "He's strong..."
|-------------------------------------------------|
|-------------------------------------------------|
|-------------5--7--7--7--7--7-----------5--------|
|-3--0--3--0--------------------3--2--1-----5--3--|

 "Double the pain..."
|-------------------------------------------------|
|-------------------------------------------------|
|-------------5--------5-/7--7--7--7--7--7--7-----|
|-3--0--3--0-----0--0--------------------------3--|

 "It will make him come alive -       Double the pain..."
|-------------------------------------------------|
|-------------------------------------------5-----|
|-------------5--7--7--7--7--5--------7-----------|
|-3--0--3--0--------------------------------------|


Back to Intro Riff (x4), then Verse, after which:

Bridge 2
~~~~~~~~
 "Frightening confusion..."
|-------------------------------------------------|
|------------------------------/7--7--------------|
|-0--0--0--0--0-----0--2--2--2--------0-----0--3--|
|----------------3-----------------------3--------|

 "Like nothing you've seen..."
|-------------------------------------------------|
|----------------------------------5--7--5--------|
|-3--3-----------------5--5--5--7-----------7--5--|
|-------5--5--5--3--5-----------------------------|

 "These are the demons..."
|-------------------------------------------------|
|-------------------------------------------------|
|----------------------------------------------3--|
|-5--5--5--5--5--3--5--7--7--7--5--5--5--3--5-----|

 "That shout in his dreams..."
|-------------------------------------------------|
|----------------------------------------5--7--5--|
|-3--3-----------------5--5--5--5--5-/7-----------|
|-------5--3--5--3--5-----------------------------|


|-------------------------------------------------|
|/3--------2--------------------------3-----2-----|
|-------------------5--------3--------------------|
|-------------------------------------------------|


Back to Chorus, after which:


Pre-Solo Riff (Play x4)
~~~~~~~~~~~~~

|-------------------------------------------------|
|-------------------------------------------------|
|----7-----------------6-----7-----------------8--|
|-0-----6--7--0--5--6-----0-----6--7--0--5--6-----|


Guitar Solo
~~~~~~~~~~~

|-------------------------------------------------|
|-------------------------------------4-----------|
|-------------------------------------------------|
|-3--3--3--3--3-/5-----2-----2--2--2-----2--2--2--|


|-------------------------------------------------|
|-------------------------------------------------|
|---------------------------/7--5-----7--5--------|
|-1--1--1--1--1-/3-----0-----------7--------7--6--|


|-------------------------------------------------|
|----------------------------4--------------4-----|
|-------------------------------------------------|
|-3--3--3--3--3-/5-----2--------2--2--2--2-----2--|


|-------------------------------------------------|
|---------------/5--------------------------------|
|----------------------5-----3--------------------|
|-1--1--1--1--1-----------------------------------|


Back to Intro Riff (x4), then Verse, after which:

Bridge 3
~~~~~~~~
 "Thunder and lightning..."
|-------------------------------------------------|
|-------------------------------------------------|
|----------------------------------------------3--|
|-5--5--5--5--5--3--5--7--7--7--5--5--5--3--5-----|

 "Eccentric machines..."
|-------------------------------------------------|
|----------------------------------5--7--7--------|
|-3--3-----------------5--5--5--7-----------5--7--|
|-------5--5--5--3--5-----------------------------|

 "These are the devils..."
|-------------------------------------------------|
|-------------------------------7--5--------------|
|-------------------------------------7--5--7--5--|
|-5--5--5--5--5--3--5--7--7--7--------------------|

 "That shout in his dreams..."
|-------------------------------------------------|
|-------------------------------------------------|
|-3--3--3--3--3-----3--5--5--5--5--5--5--5--5--5--|
|----------------5--------------------------------|


|-------------------------------------------------|
|/3--------2--------------------------3-----2-----|
|-------------------5--------3--------------------|
|-------------------------------------------------|


Final Chorus
~~~~~~~~~~~~
 "Double the pain..."
|-------------------------------------------------|
|-------------------------------------------------|
|-------------5--7--7--7--7--7--7--7--7--7--7-----|
|-3--0--3--0-----------------------------------3--|

 "He's strong..."
|-------------------------------------------------|
|-------------------------------------------------|
|-------------5--7--7--7--7--7-----------5--------|
|-3--0--3--0--------------------3--2--1-----5--3--|

 "Double the pain..."
|-------------------------------------------------|
|-------------------------------------------------|
|-------------5--7--7--7--7--7--7--7--7--7--7-----|
|-3--0--3--0-----------------------------------3--|

 "It will make him come alive..."
|-------------------------------------------------|
|-------------------------------------------------|
|-------------5--7--7--7--7--7-----------5--------|
|-3--0--3--0--------------------3--2--1-----5--3--|

 "Double the pain..."
|-------------------------------------------------|
|-------------------------------------------------|
|-------------5--7--7--7--7--7--7--7--7--7--7-----|
|-3--0--3--0-----------------------------------3--|

 "I'm sure I saw him smile...""
|-------------------------------------------------|
|-------------------------------------------------|
|-------------5--7--7--7--7--7-----------5--------|
|-3--0--3--0--------------------3--2--1-----5--3--|

 "Double the pain..."
|-------------------------------------------------|
|-------------------------------------------------|
|-------------5--7--7--7--7--7--7--7--7--7--7-----|
|-3--0--3--0-----------------------------------3--|

 "Let's kick him for a while -   And double the pain..."
|-------------------------------------------------|
|-------------------------------------------5-----|
|-------------5--7--7--7--7--5--------7-----------|
|-3--0--3--0--------------------------------------|


Back to Pre-Solo Riff x4, and then: END!

            
            
Suggest correction
Creating personal tab
Creating personal tab
You can edit any tab online and save it as your Personal.

You can edit, replace or remove any tab part or add personal notes – all changes will be seen only by you.

Personal tabs can be accessed anytime from any device, even offline.
Learn more »
Give kudos to tab author, rate the tab!
1 2 3 4 5
comments
print report bad tab
guest
You may want to rate the tab now too:
select rating
Wanna post a correction for this tab? Suggest correction