Oops, an error
Loading. Please wait.

Atonement tab

version 2
version 2

Whole song

Interactive

5,592 views 1 this week
4 commentsread comments
1 2 3 4 5
x 4
add to favorites
×
Save as Personal and add changes to this tab that will be seen only by you. Learn more ›
×
You can save this tab as Personal to edit and correct it or add notes. All changes will be seen only by you. Learn more »
launch autoscroll
font size
0
reset
how to read this tab
guitar tuner
edit
Autoscroll
slow
fast
+/-
esc
set tempo
stop
Author
Tabbed this one out myself. It sounds pretty accurate to me. I was a little
unsure about the faster parts of this song. Any help is appreciated. Enjoy!


Tuning Drop C (C G C F A D)

Intro :00 - :05
Guitar 1
|---------------------------------|
|---------------------------------|
|---------------------------------|
|---------------------------------|
|---0-5-8---0-8-7---0-7-5---7-7-8-|
|-0-------0-------0-------0-------|

Intro :05 - :11
Guitar 2
|---------------------------------|
|---------------------------------|
|---------------------------------|
|---------------------------------|
|---0-5-8---0-8-7---0-7-5---8-8-7-|
|-0-------0-------0-------0-------|

Intro :11 - :17
Guitar 1
|---------------------------------|
|---------------------------------|
|---------------------------------|
|-------7-----7-5-----5-3---5-5-7-|
|---0-5-8---0-8-7---0-7-5---7-7-8-|
|-0-------0-------0-------0-------|

Intro :17 - :23
Guitar 2
|---------------------------------|
|---------------------------------|
|---------------------------------|
|-------7-----7-5-----5-3---7-7-5-|
|---0-5-8---0-8-7---0-7-5---8-8-7-|
|-0-------0-------0-------0-------|

:23 - :45
Guitars 1 & 2
|----------------|-----------------|
|----------------|-----------------|
|----------------|-----------------|
|-------7-5------|-------7-5-3-3-5-|
|---0-5----------|---0-5-----------|
|-0--------------|-0---------------|
|                                  |
Guitar 3                           |
|----------------------------------|
|----------------------------------|
|----------------------------------|
|-0--------------------------------|
|-0--------------------------------|
|-0--------------------------------|

Guitars 1 & 2
|----------------|-----------------|
|----------------|-----------------|
|----------------|-----------------|
|-------7-5------|---------5---3---|
|---0-5----------|---------5---3---|
|-0--------------|---------5---3---|
|                                  |
Guitar 3                           |
|----------------------------------|
|----------------------------------|
|----------------------------------|
|-0------------------------5---3---|
|-0------------------------5---3---|
|-0------------------------5---3---|

Guitars 1 & 2
|----------------|-----------------|
|----------------|-----------------|
|----------------|-----------------|
|-------7-5------|-------7-5-3-3-5-|
|---0-5----------|---0-5-----------|
|-0--------------|-0---------------|
|                                  |
Guitar 3                           |
|----------------------------------|
|----------------------------------|
|----------------------------------|
|-0--------------------------------|
|-0--------------------------------|
|-0--------------------------------|

Guitars 1 & 2
|----------------|-----------------|
|----------------|-----------------|
|----------------|-----------------|
|-------7-5------|------8--3---1---|
|---0-5----------|------8--3---1---|
|-0--------------|------8--3---1---|
|                                  |
Guitar 3                           |
|----------------------------------|
|----------------------------------|
|----------------------------------|
|-0---------------------8--3---1---|
|-0---------------------8--3---1---|
|-0---------------------8--3---1---|

:45 - 1:08
Guitars 1 & 2
|----------------|-----------------|
|----------------|-----------------|
|----------------|-----------------|
|-------7-5------|-------7-5-3-3-5-|
|---0-5----------|---0-5-----------|
|-0--------------|-0---------------|
|                                  |
Guitar 3                          /
|----------------|----------------|
|----------------|----------------|
|----------------|----------------|
|----------------|----------------|
|----------------|----------------|
|0000000000000000|0000000000000000|

Guitars 1 & 2
|----------------|-----------------|
|----------------|-----------------|
|----------------|-----------------|
|-------7-5------|---------5---3---|
|---0-5----------|---------5---3---|
|-0--------------|---------5---3---|
|                                  |
Guitar 3                           |
|----------------|-----------------|
|----------------|-----------------|
|----------------|-----------------|
|----------------|---------5---3---|
|----------------|---------5---3---|
|0000000000000000|0000000003---3---|

Guitars 1 & 2
|----------------|-----------------|
|----------------|-----------------|
|----------------|-----------------|
|-------7-5------|-------7-5-3-3-5-|
|---0-5----------|---0-5-----------|
|-0--------------|-0---------------|
|                                  |
Guitar 3                          /
|----------------|----------------|
|----------------|----------------|
|----------------|----------------|
|----------------|----------------|
|----------------|----------------|
|0000000000000000|0000000000000000|

Guitars 1 & 2
|----------------|-----------------|
|----------------|-----------------|
|----------------|-----------------|
|-------7-5------|------8--3---1---|
|---0-5----------|------8--3---1---|
|-0--------------|------8--3---1---|
|                                  |
Guitar 3                           |
|----------------|-----------------|
|----------------|-----------------|
|----------------|-----------------|
|----------------|------8--3---1---|
|----------------|------8--3---1---|
|0000000000000000|0000008--3---1---|

1:08 - 1:30
Guitar 1
|---------------------------------|
|---------------------------------|
|---------------------------------|
|---------------------------------|
|---0-5-8---0-8-7---0-7-5---7-7-8-|
|-0-------0-------0-------0-------|
|                                 |
Guitar 3                          |
|---------------------------------|
|---------------------------------|
|---------------------------------|
|-0-------------------------------|
|-0-------------------------------|
|-0-------------------------------|

Guitar 2
|---------------------------------|
|---------------------------------|
|---------------------------------|
|---------------------------------|
|---0-5-8---0-8-7---0-7-5---8-8-7-|
|-0-------0-------0-------0-------|

Guitar 1
|---------------------------------|
|---------------------------------|
|---------------------------------|
|-------7-----7-5-----5-3---5-5-7-|
|---0-5-8---0-8-7---0-7-5---7-7-8-|
|-0-------0-------0-------0-------|
|                                 |
Guitar 3                          |
|---------------------------------|
|---------------------------------|
|---------------------------------|
|-5-------------------------------|
|-5-------------------------------|
|-5-------------------------------|
|                                 |
Guitar ?                           \
|----------------------------------|
|----------------------------------|
|-7---7-10----10-9----9-7---7-10-9-|
|----------------------------------|
|----------------------------------|
|----------------------------------|

Guitar 2
|---------------------------------|
|---------------------------------|
|---------------------------------|
|-------7-----7-5-----5-3---7-7-5-|
|---0-5-8---0-8-7---0-7-5---8-8-7-|
|-0-------0-------0-------0-------|
|                                 |
|---------------------------------|
|---------------------------------|
|---------------------------------|
|-8-------------------------------|
|-8-------------------------------|
|-8-------------------------------|
|                                 |
Guitar ?                           \
|----------------------------------|
|----------------------------------|
|-7---7-10----10-9----9-7---7-10-9-|
|----------------------------------|
|----------------------------------|
|----------------------------------|

1:30 - 1:53
Guitars 1 & 2 (Play riff 3 times, then ending)
|---------------------------------------|
|---------------------------------------|
|---------------------------------------|
|------4------2----------4------4--3--6-|
|------4------2----------4------4--3--6-|
|-0000-4-0000-2-00000000-4-0000-4--3--6-|

Guitars 1 & 2 (Riff ending)
|--------------------------------------------------|
|--------------------------------------------------|
|--------------------------------------------------|
|------4------2----------4------4--3--6----6--5--8-|
|------4------2----------4------4--3--6----6--5--8-|
|-0000-4-0000-2-00000000-4-0000-4--3--6-00-6--5--8-|

1:53 - 2:16
Guitars 1 & 2
|----------------|-----------------|
|----------------|-----------------|
|----------------|-----------------|
|-------7-5------|-------7-5-3-3-5-|
|---0-5----------|---0-5-----------|
|-0--------------|-0---------------|
|                                  |
Guitar 3                           |
|----------------------------------|
|----------------------------------|
|----------------------------------|
|---0----------------0-------------|
|---0----------------0-------------|
|---0----------------0-------------|

Guitars 1 & 2
|----------------|-----------------|
|----------------|-----------------|
|----------------|-----------------|
|-------7-5------|---------5---3---|
|---0-5----------|---------5---3---|
|-0--------------|---------5---3---|
|                                  |
Guitar 3                           |
|----------------------------------|
|----------------------------------|
|----------------------------------|
|---0----------------------5---3---|
|---0----------------------5---3---|
|---0----------------------5---3---|

Guitars 1 & 2
|----------------|-----------------|
|----------------|-----------------|
|----------------|-----------------|
|-------7-5------|-------7-5-3-3-5-|
|---0-5----------|---0-5-----------|
|-0--------------|-0---------------|
|                                  |
Guitar 3                           |
|----------------------------------|
|----------------------------------|
|----------------------------------|
|---0----------------0-------------|
|---0----------------0-------------|
|---0----------------0-------------|

Guitars 1 & 2
|----------------|-----------------|
|----------------|-----------------|
|----------------|-----------------|
|-------7-5------|------8--3---1---|
|---0-5----------|------8--3---1---|
|-0--------------|------8--3---1---|
|                                  |
Guitar 3                           |
|----------------------------------|
|----------------------------------|
|----------------------------------|
|---0-------------------8--3---1---|
|---0-------------------8--3---1---|
|---0-------------------8--3---1---|

2:16 - 2:38
Guitars 1 & 2 (Play riff 4 times)
|---------------------------------------|
|---------------------------------------|
|---------------------------------------|
|------4------2----------4------4--3--6-|
|------4------2----------4------4--3--6-|
|-0000-4-0000-2-00000000-4-0000-4--3--6-|

2:38 - 3:16 (Haven't figured out yet, It's fast and pretty heavily 

palm-muted. I can't really hear what's going on. Any help is 

appreciated.)

3:16 - 3:39
Guitar 1
|---------------------------------|
|---------------------------------|
|---------------------------------|
|---------------------------------|
|---0-5-8---0-8-7---0-7-5---7-7-8-|
|-0-------0-------0-------0-------|

Guitar 2
|---------------------------------|
|---------------------------------|
|---------------------------------|
|---------------------------------|
|---0-5-8---0-8-7---0-7-5---8-8-7-|
|-0-------0-------0-------0-------|

Guitar 1
|---------------------------------|
|---------------------------------|
|---------------------------------|
|-------7-----7-5-----5-3---5-5-7-|
|---0-5-8---0-8-7---0-7-5---7-7-8-|
|-0-------0-------0-------0-------|

Guitar 2
|---------------------------------|
|---------------------------------|
|---------------------------------|
|-------7-----7-5-----5-3---7-7-5-|
|---0-5-8---0-8-7---0-7-5---8-8-7-|
|-0-------0-------0-------0-------|

3:39 - 4:02
Guitar 1
|---------------------------------|
|---------------------------------|
|---------------------------------|
|---------------------------------|
|---0-5-8---0-8-7---0-7-5---7-7-8-|
|-0-------0-------0-------0-------|
|                                 |
Guitar 3                          |
|---------------------------------|
|---------------------------------|
|---------------------------------|
|-0-------------------------------|
|-0-------------------------------|
|-0-------------------------------|

Guitar 2
|---------------------------------|
|---------------------------------|
|---------------------------------|
|---------------------------------|
|---0-5-8---0-8-7---0-7-5---8-8-7-|
|-0-------0-------0-------0-------|

Guitar 1
|---------------------------------|
|---------------------------------|
|---------------------------------|
|-------7-----7-5-----5-3---5-5-7-|
|---0-5-8---0-8-7---0-7-5---7-7-8-|
|-0-------0-------0-------0-------|
|                                 |
Guitar 3                          |
|---------------------------------|
|---------------------------------|
|---------------------------------|
|-5-------------------------------|
|-5-------------------------------|
|-5-------------------------------|

Guitar 2
|---------------------------------|
|---------------------------------|
|---------------------------------|
|-------7-----7-5-----5-3---7-7-5-|
|---0-5-8---0-8-7---0-7-5---8-8-7-|
|-0-------0-------0-------0-------|

Guitar 1
|---------------------------------|
|---------------------------------|
|---------------------------------|
|-------7-----7-5-----5-3---5-5-7-|
|---0-5-8---0-8-7---0-7-5---7-7-8-|
|-0-------0-------0-------0-------|
|                                 |
Guitar 3                          |
|---------------------------------|
|---------------------------------|
|---------------------------------|
|-8-------------------------------|
|-8-------------------------------|
|-8-------------------------------|

4:02 - 4:24
Guitars 1 & 2
|----------------|-----------------|
|----------------|-----------------|
|----------------|-----------------|
|-------7-5------|-------7-5-3-3-5-|
|---0-5----------|---0-5-----------|
|-0--------------|-0---------------|
|                                  |
Guitar 3                          /
|----------------|----------------|
|----------------|----------------|
|----------------|----------------|
|----------------|----------------|
|----------------|----------------|
|0000000000000000|0000000000000000|

Guitars 1 & 2
|----------------|-----------------|
|----------------|-----------------|
|----------------|-----------------|
|-------7-5------|---------5---3---|
|---0-5----------|---------5---3---|
|-0--------------|---------5---3---|
|                                  |
Guitar 3                           |
|----------------|-----------------|
|----------------|-----------------|
|----------------|-----------------|
|----------------|---------5---3---|
|----------------|---------5---3---|
|0000000000000000|0000000003---3---|

Guitars 1 & 2
|----------------|-----------------|
|----------------|-----------------|
|----------------|-----------------|
|-------7-5------|-------7-5-3-3-5-|
|---0-5----------|---0-5-----------|
|-0--------------|-0---------------|
|                                  |
Guitar 3                          /
|----------------|----------------|
|----------------|----------------|
|----------------|----------------|
|----------------|----------------|
|----------------|----------------|
|0000000000000000|0000000000000000|

Guitars 1 & 2
|----------------|-----------------|
|----------------|-----------------|
|----------------|-----------------|
|-------7-5------|------8--3---1---|
|---0-5----------|------8--3---1---|
|-0--------------|------8--3---1---|
|                                  |
Guitar 3                           |
|----------------|-----------------|
|----------------|-----------------|
|----------------|-----------------|
|----------------|------8--3---1---|
|----------------|------8--3---1---|
|0000000000000000|0000008--3---1---|

4:24 - End
|----------------------------------|
|----------------------------------|
|----------------------------------|
|-0--------------------------------|
|-0--------------------------------|
|-0--------------------------------|

            
            
Suggest correction
Creating personal tab
Creating personal tab
You can edit any tab online and save it as your Personal.

You can edit, replace or remove any tab part or add personal notes – all changes will be seen only by you.

Personal tabs can be accessed anytime from any device, even offline.
Learn more »
comments
print report bad tab
4 comments total. Showing first comments.
0 reply
reede 30 May 10, 2009 12:22 AM

anyone got any idea how the bit this tab has missed out goes?

apart from that, this tab is pretty dam good, well done

0 reply
Kerahl 82 Jun 28, 2009 08:16 PM

It sounds like just a chromatic run across 4 frets on the 6th string. I'll see if I can figure it out.

0 reply
screamokid2k 31 Dec 18, 2010 03:45 AM

the first part of the breakdown is actually

|----------------------------------------------------------|
|----------------------------------------------------------|
|----------------------------------------------------------|
|----------------------------------------------------------|
|--0-3-1-0-4--0-3-1-0-2--0-3-1-0--0-3-1-0-4--0-3-1-0-4-3-6-|
|--0-3-1-0-4--0-3-1-0-2--0-3-1-0--0-3-1-0-4--0-3-1-0-4-3-6-|
PM * * * * * * * * * * * * * * * * * * * *
instead of just open chugging between the non palm muted chords

also
i think the part you cant figure out starts with
|--------------------------------------|
|--------------------------------------|
|--------------------------------------|
|--------------------------------------|
|--0-3-1-0--0-3-1-0--0-3-1-0--1-0-1-3--|
|--0-3-1-0--0-3-1-0--0-3-1-0--1-0-1-3--|
PM * * * * * * * * * * * * * * * *

|--------------------------------------|
|--------------------------------------|
|--------------------------------------|
|-----------------------------5---7/8--|
|--0-3-1-0--0-3-1-0--0-3-1-0--3---5/6--|
|--0-3-1-0--0-3-1-0--0-3-1-0----0------|
PM * * * * * * * * * * * * *

then it goes into open chugging with a few chords open
i think its 1st 4th then maybe 6th
but im not sure about that part

other than the stuff you skipped/the beginning of the breakdown
you did a great job

guest
You may want to rate the tab now too:
select rating
Wanna post a correction for this tab? Suggest correction