Oops, an error
Loading. Please wait.

Patent Pending tab

version 4
version 4

Whole song

Interactive

by Heavens
424 views 1 this week
no commentswrite comment
1 2 3 4 5
2 more votes to show rating
add to favorites
×
Save as Personal and add changes to this tab that will be seen only by you. Learn more ›
×
You can save this tab as Personal to edit and correct it or add notes. All changes will be seen only by you. Learn more »
launch autoscroll
font size
0
reset
how to read this tab
guitar tuner
edit
Autoscroll
slow
fast
+/-
esc
set tempo
stop
Author
Difficulty
(0:00)
Guitar 1 - Right
E|--------------------------------|--------------------------------|
B|------------------------3-------|--------------------------------|
G|4~------------------------------|4~----------------------2-----2/|
D|--------------------------------|--------------------------------|
A|--------------------------------|--------------------------------|
E|--------------------------------|--------------------------------|

E|--------------------------------|--------------------------------|
B|------------------------3-----3/|5~------------------------------|
G|4~------------------------------|--------------------------------|
D|--------------------------------|--------------------------------|
A|--------------------------------|--------------------------------|
E|--------------------------------|--------------------------------|

Guitar 2 - Left
E|--------------------------------|--------------------------------|
B|--------------------------------|--------------------------------|
G|--------------------------------|--------------------------------|
D|2-2-4-4-5-5-4-4-7-7-5-4---0-0-0-|2-2-4-4-5-5-4-4-7-7-5-4---0-0-0-|
A|--------------------------------|--------------------------------|
E|--------------------------------|--------------------------------|

E|--------------------------------|--------------------------------|
B|--------------------------------|--------------------------------|
G|--------------------------------|--------------------------------|
D|2-2-4-4-5-5-4-4-7-7-5-4---0-0-0-|2-2-4-4-5-5-4-4-7-7-5-4---0-0-0-|
A|--------------------------------|--------------------------------|
E|--------------------------------|--------------------------------|



(0:11)
Guitar 1
  G                     F#m     Em                       D
E|7-7---7-7-7---7-7-7---5-5-5---3-|3-3---3-3-3---3-3-3---2-2-2---2-|
B|8-8---8-8-8---8-8-8---7-7-7---5-|5-5---5-5-5---5-5-5---3-3-3---3-|
G|--------------------------------|--------------------------------|
D|--------------------------------|--------------------------------|
A|--------------------------------|--------------------------------|
E|--------------------------------|--------------------------------|

  G                             Em               D
E|7-7---7-7-7---7-7-7---101010--3-|3-3---3-3-3---101010--101010--10|
B|8-8---8-8-8---8-8-8---8-8-8---5-|5-5---5-5-5---7-7-7---7-7-7---7-|
G|--------------------------------|--------------------------------|
D|--------------------------------|--------------------------------|
A|--------------------------------|--------------------------------|
E|--------------------------------|--------------------------------|x2

Guitar 2 - palm muted
E|--------------------------------|--------------------------------|
B|--------------------------------|--------------------------------|
G|--------------------------------|--------------------------------|
D|2-2---2-2-2---2-2-2---2-2-0-5-0-|2-2---2-2-2---2-2-2---2-2-0-5-0-|
A|--------------------------------|--------------------------------|
E|--------------------------------|--------------------------------|

E|--------------------------------|--------------------------------|
B|--------------------------------|--------------------------------|
G|--------------------------------|--------------------------------|
D|2-2---2-2-2---2-2-2---2-2-0-5-0-|2-2---2-2-2---5-5-5---4-4-0-5-0-|
A|--------------------------------|--------------------------------|
E|--------------------------------|--------------------------------|

E|--------------------------------|--------------------------------|
B|--------------------------------|--------------------------------|
G|--------------------------------|--------------------------------|
D|2-2---2-2-2---4-4-4---5-5-5---2-|2-2---2-2-2---7-7-7---5-5-5---2-|
A|--------------------------------|--------------------------------|
E|--------------------------------|--------------------------------|

E|--------------------------------|--------------------------------|
B|--------------------------------|--------------------------------|
G|--------------------------------|--------------------------------|
D|2-2---2-2-2---4-4-4---5-5-5---7-|7-7---5-5-5---4-4-4---2-2-2---2-|
A|--------------------------------|--------------------------------|
E|--------------------------------|--------------------------------|



(0:34)
Guitar 1
E|--------------------------------|--------------------------------|
B|------------------------3-------|--------------------------------|
G|4~------------------------------|4~----------------------2-----2/|
D|--------------------------------|--------------------------------|
A|--------------------------------|--------------------------------|
E|--------------------------------|--------------------------------|

E|--------------------------------|--------------------------------|
B|------------------------3-----3/|5~------------------------------|
G|4~------------------------------|--------------------------------|
D|--------------------------------|--------------------------------|
A|--------------------------------|--------------------------------|
E|--------------------------------|--------------------------------|

Guitar 2
E|--------------------------------|--------------------------------|
B|--------------------------------|--------------------------------|
G|--------------------------------|--------------------------------|
D|2-2-4-4-5-5-4-4-7-7-5-4---0-0-0-|2-2-4-4-5-5-4-4-7-7-5-4---0-0-0-|
A|--------------------------------|--------------------------------|
E|--------------------------------|--------------------------------|

E|--------------------------------|--------------------------------|
B|--------------------------------|--------------------------------|
G|--------------------------------|--------------------------------|
D|2-2-4-4-5-5-4-4-7-7-5-4---0-0-0-|2-2-4-4-5-5-4-4-7-7-5-7-7-7-77--|
A|--------------------------------|--------------------------------|
E|--------------------------------|--------------------------------|



(0:45)
Guitar 1
E|7-7---7-7-7---7-7-7---5-5-5---3-|3-3---3-3-3---3-3-3---2-2-2---2-|
B|8-8---8-8-8---8-8-8---7-7-7---5-|5-5---5-5-5---5-5-5---3-3-3---3-|
G|--------------------------------|--------------------------------|
D|--------------------------------|--------------------------------|
A|--------------------------------|--------------------------------|
E|--------------------------------|--------------------------------|

E|7-7---7-7-7---7-7-7---101010--3-|3-3---3-3-3---101010--101010--10|
B|8-8---8-8-8---8-8-8---8-8-8---5-|5-5---5-5-5---7-7-7---7-7-7---7-|
G|--------------------------------|--------------------------------|
D|--------------------------------|--------------------------------|
A|--------------------------------|--------------------------------|
E|--------------------------------|--------------------------------|x2

Guitar 2 - palm muted
E|--------------------------------|--------------------------------|
B|--------------------------------|--------------------------------|
G|--------------------------------|--------------------------------|
D|2-2---2-2-2---2-2-2---2-2-0-5-0-|2-2---2-2-2---2-2-2---2-2-0-5-0-|
A|--------------------------------|--------------------------------|
E|--------------------------------|--------------------------------|

E|--------------------------------|--------------------------------|
B|--------------------------------|--------------------------------|
G|--------------------------------|--------------------------------|
D|2-2---2-2-2---2-2-2---2-2-0-5-0-|2-2---2-2-2---5-5-5---4-4-0-5-0-|
A|--------------------------------|--------------------------------|
E|--------------------------------|--------------------------------|

E|--------------------------------|--------------------------------|
B|--------------------------------|--------------------------------|
G|--------------------------------|--------------------------------|
D|2-2---2-2-2---4-4-4---5-5-5---2-|2-2---2-2-2---7-7-7---5-5-5---2-|
A|--------------------------------|--------------------------------|
E|--------------------------------|--------------------------------|

E|--------------------------------|--------------------------------|
B|--------------------------------|--------------------------------|
G|--------------------------------|--------------------------------|
D|2-2---2-2-2---4-4-4---5-5-5---7-|7-7---5-5-5---4-4-4---2-2-2---2-|
A|--------------------------------|--------------------------------|
E|--------------------------------|--------------------------------|



(1:08)
Guitar 1
E|--------------------------------|--------------------------------|
B|--------------------------------|--------------------------------|
G|9-9-9-9-9-9-9-9-----------------|9-9-9-9-9-9-9-9-----------------|
D|9-9-9-9-9-9-9-9---7-7-7-7-5-5-5-|9-9-9-9-9-9-9-9---7-7-7-7-5-5-5-|
A|7-7-7-7-7-7-7-7---7-7-7-7-5-5-5-|7-7-7-7-7-7-7-7---7-7-7-7-5-5-5-|
E|0-0-0-0-0-0-0-0---5-5-5-5-3-3-3-|0-0-0-0-0-0-0-0---5-5-5-5-3-3-3-|

E|--------------------------------|--------------------------------|
B|--------------------------------|--------------------------------|
G|9-9-9-9-9-9-9-9-----------------|1010101010101010----------------|
D|9-9-9-9-9-9-9-9---7-7-7-7-5-5-5-|1010101010101010--8-8-8-8-5-5-5-|
A|7-7-7-7-7-7-7-7---7-7-7-7-5-5-5-|8-8-8-8-8-8-8-8---8-8-8-8-5-5-5-|
E|0-0-0-0-0-0-0-0---5-5-5-5-3-3-3-|------------------6-6-6-6-3-3-3-|

Guitar 2
E|--------------------------------|--------------------------------|
B|--------------------------------|--------------------------------|
G|9-9-9-9-9-9-9-9-----------------|9-9-9-9-9-9-9-9-----------------|
D|9-9-9-9-9-9-9-9---7-7-7-7-5-5-5-|9-9-9-9-9-9-9-9---7-7-7-7-5-5-5-|
A|7-7-7-7-7-7-7-7---7-7-7-7-5-5-5-|7-7-7-7-7-7-7-7---7-7-7-7-5-5-5-|
E|0-0-0-0-0-0-0-0---5-5-5-5-3-3-3-|0-0-0-0-0-0-0-0---5-5-5-5-3-3-3-|
	
E|--------------------------------|--------------------------------|
B|--------------------------------|--------------------------------|
G|9-9-9-9-9-9-9-9-----------------|----10------10------9-------10--|
D|9-9-9-9-9-9-9-9---7-7-7-7-5-5-5-|--10--10--10--10--10--10--10--10|
A|7-7-7-7-7-7-7-7---7-7-7-7-5-5-5-|8-------8-------8-------8-------|
E|0-0-0-0-0-0-0-0---5-5-5-5-3-3-3-|--------------------------------|



(1:20)
Guitar 1
E|--------------------------------|--------------------------------|
B|------------------------3-------|--------------------------------|
G|4~------------------------------|4~----------------------2-----2/|
D|--------------------------------|--------------------------------|
A|--------------------------------|--------------------------------|
E|--------------------------------|--------------------------------|

E|--------------------------------|--------------------------------|
B|------------------------3-----3/|5~------------------------------|
G|4~------------------------------|------------------------2-------|
D|--------------------------------|--------------------------------|
A|--------------------------------|--------------------------------|
E|--------------------------------|--------------------------------|

Guitar 2
E|--------------------------------|--------------------------------|
B|--------------------------------|--------------------------------|
G|--------------------------------|--------------------------------|
D|2-2-4-4-5-5-4-4-7-7-5-4---0-0-0-|2-2-4-4-5-5-4-4-7-7-5-4---0-0-0-|
A|--------------------------------|--------------------------------|
E|--------------------------------|--------------------------------|

E|--------------------------------|--------------------------------|
B|--------------------------------|--------------------------------|
G|--------------------------------|--------------------------------|
D|2-2-4-4-5-5-4-4-7-7-5-4---0-0-0-|2-2-4-4-5-5-4-4-7-7-5-4---0-0-0-|
A|--------------------------------|--------------------------------|
E|--------------------------------|--------------------------------|



(1:31)
Guitar 1
E|7-7---7-7-7---7-7-7---5-5-5---3-|3-3---3-3-3---3-3-3---2-2-2---2-|
B|8-8---8-8-8---8-8-8---7-7-7---5-|5-5---5-5-5---5-5-5---3-3-3---3-|
G|--------------------------------|--------------------------------|
D|--------------------------------|--------------------------------|
A|--------------------------------|--------------------------------|
E|--------------------------------|--------------------------------|

E|7-7---7-7-7---7-7-7---101010--3-|3-3---3-3-3---101010--101010--7-|
B|8-8---8-8-8---8-8-8---8-8-8---5-|5-5---5-5-5---7-7-7---7-7-7---8-|
G|--------------------------------|--------------------------------|
D|--------------------------------|--------------------------------|
A|--------------------------------|--------------------------------|
E|--------------------------------|--------------------------------|

No Guitar 2



(1:43)
Guitar 1
E|7-7---------------------------7-|7-7-7-7-7-7---7-7-7---5-5-5---7-|
B|8-8---------------------------8-|8-8-8-8-8-8---8-8-8---7-7-7---8-|
G|--------------------------------|--------------------------------|
D|--------------------------------|--------------------------------|
A|--------------------------------|--------------------------------|
E|--------------------------------|--------------------------------|

E|7-7-----------7-7-7---101010----|3-3---3-3-3---101010--1010101010|
B|8-8-----------8-8-8---8-8-8-----|5-5---5-5-5---7-7-7---7-7-7-7-7-|
G|--------------------------------|--------------------------------|
D|--------------------------------|--------------------------------|
A|--------------------------------|--------------------------------|
E|--------------------------------|--------------------------------|

Guitar 2 - palm muted
E|--------------------------------|--------------------------------|
B|--------------------------------|--------------------------------|
G|--------------------------------|--------------------------------|
D|2-2---2-2-2---4-4-4---5-5-5---2-|2-2---2-2-2---7-7-7---5-5-5---2-|
A|--------------------------------|--------------------------------|
E|--------------------------------|--------------------------------|

E|--------------------------------|--------------------------------|
B|--------------------------------|--------------------------------|
G|--------------------------------|--------------------------------|
D|2-2---2-2-2---4-4-4---5-5-5---7-|7-7---5-5-5---4-4-4---2-2-2---2-|
A|--------------------------------|--------------------------------|
E|--------------------------------|--------------------------------|



(1:54)
Guitar 1
E|--------------------------------|--------------------------------|
B|--------------------------------|--------------------------------|
G|9-9-9-9-9-9-9-9-----------------|9-9-9-9-9-9-9-9-----------------|
D|9-9-9-9-9-9-9-9---7-7-7-7-5-5-5-|9-9-9-9-9-9-9-9---7-7-7-7-5-5-5-|
A|7-7-7-7-7-7-7-7---7-7-7-7-5-5-5-|7-7-7-7-7-7-7-7---7-7-7-7-5-5-5-|
E|0-0-0-0-0-0-0-0---5-5-5-5-3-3-3-|0-0-0-0-0-0-0-0---5-5-5-5-3-3-3-|

E|--------------------------------|--------------------------------|
B|--------------------------------|--------------------------------|
G|9-9-9-9-9-9-9-9-----------------|1010101010101010----------------|
D|9-9-9-9-9-9-9-9---7-7-7-7-5-5-5-|1010101010101010--8-8-8-8-5-5-5-|
A|7-7-7-7-7-7-7-7---7-7-7-7-5-5-5-|8-8-8-8-8-8-8-8---8-8-8-8-5-5-5-|
E|0-0-0-0-0-0-0-0---5-5-5-5-3-3-3-|------------------6-6-6-6-3-3-3-|x2

Guitar 2
E|--------------------------------|--------------------------------|
B|--------------------------------|--------------------------------|
G|9-9-9-9-9-9-9-9-----------------|9-9-9-9-9-9-9-9-----------------|
D|9-9-9-9-9-9-9-9---7-7-7-7-5-5-5-|9-9-9-9-9-9-9-9---7-7-7-7-5-5-5-|
A|7-7-7-7-7-7-7-7---7-7-7-7-5-5-5-|7-7-7-7-7-7-7-7---7-7-7-7-5-5-5-|
E|0-0-0-0-0-0-0-0---5-5-5-5-3-3-3-|0-0-0-0-0-0-0-0---5-5-5-5-3-3-3-|
	
E|--------------------------------|--------------------------------|
B|--------------------------------|--------------------------------|
G|9-9-9-9-9-9-9-9-----------------|----10------10------9-------10--|
D|9-9-9-9-9-9-9-9---7-7-7-7-5-5-5-|--10--10--10--10--10--10--10--10|
A|7-7-7-7-7-7-7-7---7-7-7-7-5-5-5-|8-------8-------8-------8-------|
E|0-0-0-0-0-0-0-0---5-5-5-5-3-3-3-|--------------------------------|x2



(2:17)
Guitar 2
E|--------------------------------|--------------------------------|
B|------------------------8p7-----|------------------------8p7-----|
G|----7-------9-------7-------7\\\|----7-------9-------7-------7\\\|
D|--------------------------------|--------------------------------|
A|7-7---7-7-7---7-7-7---7---------|7-7---7-7-7---7-7-7---7---------|
E|--------------------------------|--------------------------------|

Guitar 1 - comes in at 2:28, palm muted
E|--------------------------------|--------------------------------|
B|--------------------------------|--------------------------------|
G|--------------------------------|--------------------------------|
D|2-2---2-2-2---2-2-2---2-2-0-5-0-|2-2---2-2-2---2-2-2---2-2-0-5-0-|
A|--------------------------------|--------------------------------|
E|--------------------------------|--------------------------------|

E|--------------------------------|--------------------------------|
B|--------------------------------|--------------------------------|
G|--------------------------------|--------------------------------|
D|2-2---2-2-2---2-2-2---2-2-0-5-0-|2-2---2-2-2---2-2-2---2-2-0-5-0-|
A|--------------------------------|--------------------------------|
E|--------------------------------|--------------------------------|



(2:42)
Guitar 1
E|--------------------------------|--------------------------------|
B|--------------------------------|--------------------------------|
G|--------------------------------|--------------------------------|
D|2-2-2-4-4-4/9-9-9-9-9-9-9-9-9-9-|2-2-2-4-4-4/9-9-9-9-9-9-9-9-9-9-|
A|--------------------------------|--------------------------------|
E|--------------------------------|--------------------------------|x2

Guitar 2
E|--------------------------------|--------------------------------|
B|--------------------------------|--------------------------------|
G|9-9-9-9-9-9-9-9-9-9-9-9-9-9-9-9-|9-9-9-9-9-9-9-9-9-9-9-9-9-9-9-9-|
D|x-x-x-x-x-x-x-x-x-x-x-x-x-x-x-x-|x-x-x-x-x-x-x-x-x-x-x-x-x-x-x-x-|
A|7-7-7-7-7-7-7-7-7-7-7-7-7-7-7-7-|7-7-7-7-7-7-7-7-7-7-7-7-7-7-7-7-|
E|--------------------------------|--------------------------------|

E|--------------------------------|--------------------------------|
B|--------------------------------|--------------------------------|
G|9-9-9-9-9-9-9-9-9-9-9-9-9-9-9-9-|9-9-9\7-7-7\5-5-5\4-4-4-4-4-4-4-|
D|x-x-x-x-x-x-x-x-x-x-x-x-x-x-x-x-|x-x-x-x-x-x-x-x-x-x-x-x-x-x-x-x-|
A|7-7-7-7-7-7-7-7-7-7-7-7-7-7-7-7-|7-7-7\5-5-5\3-3-3\2-2-2-2-2-2-2-|
E|--------------------------------|--------------------------------|



(2:52)
Guitar 1
E|--------------------------------|--------------------------------|
B|--------------------------------|--------------------------------|
G|9-9-9-9-9-9-9-9-----------------|9-9-9-9-9-9-9-9-----------------|
D|9-9-9-9-9-9-9-9---7-7-7-7-5-5-5-|9-9-9-9-9-9-9-9---7-7-7-7-5-5-5-|
A|7-7-7-7-7-7-7-7---7-7-7-7-5-5-5-|7-7-7-7-7-7-7-7---7-7-7-7-5-5-5-|
E|0-0-0-0-0-0-0-0---5-5-5-5-3-3-3-|0-0-0-0-0-0-0-0---5-5-5-5-3-3-3-|

E|--------------------------------|--------------------------------|
B|--------------------------------|--------------------------------|
G|9-9-9-9-9-9-9-9-----------------|1010101010101010----------------|
D|9-9-9-9-9-9-9-9---7-7-7-7-5-5-5-|1010101010101010--8-8-8-8-5-5-5-|
A|7-7-7-7-7-7-7-7---7-7-7-7-5-5-5-|8-8-8-8-8-8-8-8---8-8-8-8-5-5-5-|
E|0-0-0-0-0-0-0-0---5-5-5-5-3-3-3-|------------------6-6-6-6-3-3-3-|x2

Guitar 2
E|--------------------------------|--------------------------------|
B|--------------------------------|--------------------------------|
G|9-9-9-9-9-9-9-9-----------------|9-9-9-9-9-9-9-9-----------------|
D|9-9-9-9-9-9-9-9---7-7-7-7-5-5-5-|9-9-9-9-9-9-9-9---7-7-7-7-5-5-5-|
A|7-7-7-7-7-7-7-7---7-7-7-7-5-5-5-|7-7-7-7-7-7-7-7---7-7-7-7-5-5-5-|
E|0-0-0-0-0-0-0-0---5-5-5-5-3-3-3-|0-0-0-0-0-0-0-0---5-5-5-5-3-3-3-|
	
E|--------------------------------|--------------------------------|
B|--------------------------------|--------------------------------|
G|9-9-9-9-9-9-9-9-----------------|----10------10------9-------10--|
D|9-9-9-9-9-9-9-9---7-7-7-7-5-5-5-|--10--10--10--10--10--10--10--10|
A|7-7-7-7-7-7-7-7---7-7-7-7-5-5-5-|8-------8-------8-------8-------|
E|0-0-0-0-0-0-0-0---5-5-5-5-3-3-3-|--------------------------------|



(3:14)
Guitar 1
E|--------------------------------|--------------------------------|
B|------------------------3-------|--------------------------------|
G|4~------------------------------|4~----------------------2-----2/|
D|--------------------------------|--------------------------------|
A|--------------------------------|--------------------------------|
E|--------------------------------|--------------------------------|

E|--------------------------------|--------------------------------|
B|------------------------3-----3/|5~----------------------3-------|
G|4~------------------------------|--------------------------------|
D|--------------------------------|--------------------------------|
A|--------------------------------|--------------------------------|
E|--------------------------------|--------------------------------|x2

Guitar 2
E|--------------------------------|--------------------------------|
B|--------------------------------|--------------------------------|
G|--------------------------------|--------------------------------|
D|2-2-4-4-5-5-4-4-7-7-5-4---0-0-0-|2-2-4-4-5-5-4-4-7-7-5-4---0-0-0-|
A|--------------------------------|--------------------------------|
E|--------------------------------|--------------------------------|

E|--------------------------------|--------------------------------|
B|--------------------------------|--------------------------------|
G|--------------------------------|--------------------------------|
D|2-2-4-4-5-5-4-4-7-7-5-4---0-0-0-|2-2-4-4-5-5-4-4-7-7-5-4---0-0-0-|
A|--------------------------------|--------------------------------|
E|--------------------------------|--------------------------------|x2


(3:37) End on:
Guitar 1
E|--------------------------------|
B|--------------------------------|
G|4~------------------------------|
D|--------------------------------|
A|--------------------------------|
E|--------------------------------|

Guitar 2

E|--------------------------------|
B|--------------------------------|
G|--------------------------------|
D|2~------------------------------|
A|--------------------------------|
E|--------------------------------|



Lyrics (not 100% sure about these):
(0:11)
Bring your bored, bring your broken hearted
Got a vessel that we've chartered
Into the free, wide open sea
The two of us dearly departed
Bring a book with a happy ending
A remix of the message sending
Shining clean, this guillotine
New and improved
Patent pending

(0:45)
Place a curse on the hearse were driving
Cut the brake lines, end up dying
Glad to be traumatically
Against the ropes lost all hope trying
Finding ways to break the silence
And to quench our taste for violence
Shadow free monstrosities
Crafting the fine art of patience

(1:08)
High time
We swore off everything we know
Sit tight
We’ll be back in six minutes or so

(1:31)
Bring your bored, Bring your broken hearted
We've got a vessel that we've chartered
Into the wide open sea
The two of us dearly departed
Bring a book with a happy ending
A remix of the message sending
Headless dreams of guillotines
Sharpened clean, never ending

(1:54)
High time
We swore off everything you know
Sit tight
We’ll be back in six minutes or so
High time
We swore off everything we know
Sit tight
We’ll be back with six-six-six in tow

(2:51)
High time
We swore off everything we know
Sit tight
We’ll be back in six minutes or so
High time
We swore off everything we know
Sit tight
We’ll be back with six-six-six I know

            
            
Suggest correction
Creating personal tab
Creating personal tab
You can edit any tab online and save it as your Personal.

You can edit, replace or remove any tab part or add personal notes – all changes will be seen only by you.

Personal tabs can be accessed anytime from any device, even offline.
Learn more »
Give kudos to tab author, rate the tab!
1 2 3 4 5
comments
print report bad tab
guest
You may want to rate the tab now too:
select rating
Wanna post a correction for this tab? Suggest correction