Oops, an error
Loading. Please wait.

Patent Pending tab

version 3
version 3

Whole song

Interactive

by Heavens
583 views 1 this week
5 commentsread comments
1 2 3 4 5
2 more votes to show rating
add to favorites
×
Save as Personal and add changes to this tab that will be seen only by you. Learn more ›
×
You can save this tab as Personal to edit and correct it or add notes. All changes will be seen only by you. Learn more »
launch autoscroll
font size
0
reset
how to read this tab
guitar tuner
edit
Autoscroll
slow
fast
+/-
esc
set tempo
stop
Author
So I looked at the other tabs for this,
and I can most definitely say that this
is the most accurate so far. Not perfect,
and not saying the other tabs are bad.
but it's progress.

Intro:
|---------------------------------|
|---------------------------------|
|---------------------------------|
|-2-2-4-4-5-5-4-4-7-7-5-4-4-0-0-0-|
|---------------------------------|
|---------------------------------|

Verse:
                   (9/7 are not power chords)  
|-7-7-x-7-7-7-x-7-7-7-x-x-x-x-x-3-3-3-x-3-3-3-x-3-3-3-x-3-3-3-|
|-8-8-x-8-8-8-x-8-8-8-x-7-7-7-x-5-5-5-x-5-5-5-x-5-5-5-x-5-5-5-|
|-x-x-x-x-x-x-x-x-x-x-x-7-7-7-x-x-x-x-x-x-x-x-x-x-x-x-x-x-x-x-|
|-9-9-x-9-9-9-x-9-9-9-x-9-9-9-x-5-5-5-x-5-5-5-x-5-5-5-x-5-5-5-|
|-------------------------------------------------------------|
|-------------------------------------------------------------|
(the one/zeros are tens, just to be clear.)
|-7-7-x-7-7-7-x-7-7-7-x-101010x-3-3-3-x-3-3-3-x-3-3-3-x-3-3-3-|
|-8-8-x-8-8-8-x-8-8-8-x-8-8-8-x-5-5-5-x-5-5-5-x-5-5-5-x-5-5-5-|
|-x-x-x-x-x-x-x-x-x-x-x-x-x-x-x-x-x-x-x-x-x-x-x-x-x-x-x-x-x-x-|
|-9-9-x-9-9-9-x-9-9-9-x-9-9-9-x-5-5-5-x-5-5-5-x-5-5-5-x-5-5-5-|
|-------------------------------------------------------------|
|-------------------------------------------------------------|

Chorus:
I know there's something thrown in here
that involves the low E string and the 
A string, but I can't figure out what.
But if you play along with the song, this
sounds fine for now.
|---------------------------------|
|---------------------------------|
|-9-9-9-9-9-9-9-9-----------------|
|-9-9-9-9-9-9-9-9-7-7-7-7-5-5-5-5-|
|-7-7-7-7-7-7-7-7-7-7-7-7-5-5-5-5-|
|-7-7-7-7-7-7-7-7-5-5-5-5-3-3-3-3-|
High time we swore off everything we know

|-------------------------------|
|-------------------------------|
|-10-10-10-10-10-10-10-10-10-10-|
|-10-10-10-10-10-10-10-10-10-10-|
|-8--8--8--8--8--8--8--8--8--8--|
|-------------------------------|
we'll be back in six minutes or so

bridge:
I found the best way to do this is
to keep your index finger barred
on the 7th fret
|---------------------------------|
|--------------------------8p7----|
|-----7-------9-------7--------7--|
|---------------------------------|
|-7-7---7-7-7---7-7-7---7---------|
|---------------------------------|
  - -   - - -   - - -   -

|-----------------|
|-----------------|
|-----------------|
|-------4-4-4--9~-|
|-7-7-7-----------|
|-----------------|
well all of the rest is pretty much in this,
minus what I couldn't figure out. I hope someone
can figure out the rest.

            
            
Suggest correction
Creating personal tab
Creating personal tab
You can edit any tab online and save it as your Personal.

You can edit, replace or remove any tab part or add personal notes – all changes will be seen only by you.

Personal tabs can be accessed anytime from any device, even offline.
Learn more »
Give kudos to tab author, rate the tab!
1 2 3 4 5
comments
print report bad tab
5 comments total. Showing first comments.
+2 reply
djbc 104 Jan 27, 2007 08:47 AM

Yep, the rhythm chords sound much closer. Thanks for figuring it out, it was really bothering me playing the other tabs!

-1 reply
Wingswonttakeme 217 Mar 14, 2007 09:16 PM

Chorus:


-----------------------------------
-----------------------------------
----9-9-9-9-9-9-9-9----------------
----9-9-9-9-9-9-9-9-7-7-7-7-7-7-7-7 x3
----7-7-7-7-7-7-7-7-7-7-7-7-7-7-7-7
--------------------5-5-5-5-5-5-5-5


then


------------------------------------
------------------------------------
------------------------------------
---1010101010101010-1212121212121212
---1010101010101010-1212121212121212
---888888888888888--1010101010101010

+1 reply
FagNasty 133 Mar 15, 2007 06:49 PM

Try this instead. I worked this out the other night.

Chorus:
|-------------------------------|
|-------------------------------|
|-9-9-9-9-9-9-9-----------------|
|-9-9-9-9-9-9-9-7-7-7-7-5-5-5-5-| x3
|-7-7-7-7-7-7-7-7-7-7-7-5-5-5-5-|
|-7-7-7-7-7-7-7-5-5-5-5-3-3-3-3-|

|----------------------|
|----------------------|
|----------------------|
|-10101010101010101010-|
|-8-8-8-8-8-8-8-8-8-8--|
|----------------------|

guest
You may want to rate the tab now too:
select rating
Wanna post a correction for this tab? Suggest correction